Anarchy In The UK

Sex Pistols

 Sex Pistols
Tom: G
		
Intro:

E|-------------------------------------------------------|
B|-------------------------------------------------------|
G|--12-12-12-12-12-12-12-12-12--10-10-10-10-10-10-10-10--|
D|--12-12-12-12-12-12-12-12-12--10-10-10-10-10-10-10-10--|
A|--10-10-10-10-10-10-10-10-10--8--8--8--8--8--8--8--8---|
E|-------------------------------------------------------|



E|-------------------------------------------------|
B|-------------------------------------------------|
G|--9--7--5-5-5-5-5-5-5-5-5-5-5-5-5-5-5-5-5-5-5-5--|
D|--9--7--5-5-5-5-5-5-5-5-5-5-5-5-5-5-5-5-5-5-5-5--|
A|--7--5--3-3-3-0-3-3-3-0-3-3-3-0-3-3-3-0-3-3-3-0--|
E|-------------------------------------------------|


Verso:

E|----------------------------------|
B|----------------------------------|
G|--5-5-5-5-5-5-5-5-5-5-5-5-10-9----|
D|--5-5-5-5-5-5-5-5-5-5-5-5-10-9----|
A|--3-3-3-0-3-3-3-0-3-3-3-0-8--7----|
E|----------------------------------|


Refrão:

E|-----------------------------------------------------|
B|-----------------------------------------------------|
G|--12-12-12-12-12-12-12-12-12-12-12-12-12-12-12-12-12-|
D|--12-12-12-12-12-12-12-12-12-12-12-12-12-12-12-12-12-|
A|--10-10-10-10-10-10-10-10-10-10-10-10-10-10-10-10-10-|
E|-----------------------------------------------------|



E|--------------------------------------------------------|
B|--------------------------------------------------------|
G|-10-10-10-10-10-10-10-10-10-10-10-10-10-10-10-10-10-9-7-|
D|-10-10-10-10-10-10-10-10-10-10-10-10-10-10-10-10-10-9-7-|
A|-8--8--8--8--8--8--8--8--8--8--8--8--8--8--8--8--8--7-5-|
E|--------------------------------------------------------|



E|-----------------------------|
B|-----------------------------|
G|-5-5-5-5-5-5-5-5-5-5-5-5-10-9|
D|-5-5-5-5-5-5-5-5-5-5-5-5-10-9|
A|-3-3-3-0-3-3-3-0-3-3-3-0-8--7|
E|-----------------------------|


Solo:

E|-----12-----------------|-----14-------------------|
B|-/13----13----------13/-|-/15----15------15----11/-|
G|-----------14~------14/-|-/16-------16~--16-16-12/-|
D|------------------------|--------------------------|
A|------------------------|--------------------------|
E|------------------------|--------------------------|



E|-----12-----------------|-----14-------------------|
B|-/13----13-------13-----|--------15------------11/-|
G|-/14-------14~---14-14/-|-/16-------16~--16\10-12/-|
D|------------------------|--------------------------|
A|------------------------|--------------------------|
E|------------------------|--------------------------|



E|-----12-----------------|-----14-------------------|
B|-/13----13-------13-13/-|-/15----15------15\---11/-|
G|-/14-------14~---14-14/-|-/16-------16~--16\---12/-|
D|------------------------|--------------------------|
A|------------------------|--------------------------|
E|------------------------|--------------------------|



E|-----12--------------------|-----------------------|
B|-/13----13-------13-13\----|----8-8~--/13----13-13-|
G|-/14-------14~---14-14\----|----7-7~------14-14-14-|
D|------------------------7/-|-/9--------------------|
A|---------------------------|-----------------------|
E|---------------------------|-----------------------|



E|------------------------------|-----------------|------------------|
B|-13-15-15-15~-----------------|-----5-3-5-3-----|-/3-----5-5-5-5---|
G|-14-16-16-16~-(16)/19-19\-0-4-|-5-7-5-4-5-4-0---|-/4-0---5-5-5-5---|
D|--------------------------0---|---------------0-|------0-----------|
A|------------------------------|-----------------|----------------0-|
E|------------------------------|-----------------|------------------|


Ponte:

E|--2--2---0-2---3---2---0-0h2-2-|
B|--3--3---3-3-3-3---3---3-3---3-|
G|--2--2---2-2-2-2---2---2-2---2-|
D|--0--0---0-0---0---0-----0---0-|
A|-------------------------------|
E|-------------------------------|
Texto Colunas
Alterar tom ½ tom ½ tom
afinação acordes na letra esconder tabs mais »

Comentários (18)

  • Eddy Eddy: Postado em 23/03/2013 20:03

    Punk rock é tenso hahaha

    • eric eric: Postado em 23/12/2013 18:23

      Comentário removido

  • vinyhendrix vinyhendrix: Postado em 18/02/2013 21:23

    punk nada o negosso é zeca pagodinho, e luan santana........ kkkkkkkkkkkkkkkkkkkkkkkkkkkkkkkkkkkkkkk ←←← só lixo isso kkk U>

  • sergio_murillo sergio_murillo: Postado em 04/02/2013 23:18

    Os power chords e a ponte ta certinha e o começo do 1º solo tbm, mas o final dele eu acho q tá errado.E|------------------------------------

  • vermenegativo_ vermenegativo_: Postado em 06/01/2013 16:37

    Punk rock:rapido direto e sem frescura,a frescura nos deixamos para os headbanger se achar os fodões!

  • vinyhendrix vinyhendrix: Postado em 06/12/2012 11:26

    sao 2 solos na musica , e a ponte final , o solo ali sao os 2 juntos , ou só o 1°? parece so o 1° msm

  • pedro.lauriano pedro.lauriano: Postado em 14/09/2012 20:48

    Só depois de aprender essa música que passei a amá-la!!!

  • firewalls. firewalls.: Postado em 25/08/2012 23:21

    Metal é o caralho, o negócio é punk rock

  • bruno.miashiro bruno.miashiro: Postado em 14/07/2012 20:16

    é foda demais que se foda guns aqui é punk rock nao guns nem metal

  • kroger32 kroger32: Postado em 13/12/2011 17:50

    Muito da hora mano.... Só o solo q demorei um poko pra tocar..kk'

Exibindo 10 de 18 comentários Mostrar mais ver todos »
Composição: Helio Barbosa / Munari / Rev. W.L. Richardson / Richard Humpty Vission / Stephanie Davis / Yuki Matsuura
Esse não é o compositor? Avise-nos.
Contribuição: Eu Correções: Danstasiak »
  1. Tudo Que Você Quiser - Luan Santana Manteve-se 6.037 exibições
  2. Lepo Lepo - Psirico Manteve-se 4.468 exibições
  3. Mozão - Lucas Lucco Manteve-se 4.227 exibições
  4. Logo Eu - Jorge e Mateus Manteve-se 3.853 exibições
  5. Gaveta - Fernando e Sorocaba Manteve-se 3.342 exibições
  6. Pra Você - Onze:20 Manteve-se 3.171 exibições
  7. Só Os Loucos Sabem - Charlie Brown Jr. Manteve-se 3.013 exibições
  8. Tempo Perdido - Legião Urbana Manteve-se 2.451 exibições
  9. Fui Fiel - Gusttavo Lima Manteve-se 2.434 exibições
  10. Na Linha do Tempo - Victor e Leo Manteve-se 2.183 exibições
  1. Jorge e Mateus- Manteve-se 22.974 exibições
  2. Legião Urbana- Manteve-se 20.295 exibições
  3. Luan Santana- Manteve-se 17.553 exibições
  4. Charlie Brown Jr.- Manteve-se 17.249 exibições
  5. Fernandinho- Manteve-se 14.873 exibições
  6. Thalles Roberto- Manteve-se 11.307 exibições
  7. Católicas- Manteve-se 10.786 exibições
  8. Victor e Leo- Manteve-se 10.519 exibições
  9. Gusttavo Lima- Manteve-se 10.295 exibições
  10. Aline Barros- Manteve-se 10.226 exibições
Exibir acordes »

Cifras e tabs

Fórum Cifra Club

Aprenda

Cifra Club News

Mais Serviços Cifra Club ID

Studio Sol

©1996 - 2014 Cifra Club · o primeiro, maior e mais acessado do Brasil · 329 mil músicas · 5.9 milhões pessoas cadastradas

publicidade
fechar