Cifra Club

Anarchy In The U.K

Sex Pistols

Cifra: Principal (violão e guitarra)
Tom: G
Introdução: G5  F5  E5  D5  C5


Primeira Parte:

C5          ( F5  E5 )
I'm an antichrist
C5         ( F5  E5 )
I'm an anarchist
        C5
Don't know what I want
                 ( F5  E5 )
But I know how to get  it
   C5
I wanna destroy the passerby
       G5         F5  E5  D5    C5
'Cause I want to be       anarchy
( F5  E5 ) C5             G5
              No dog's body


Segunda Parte:

C5              ( F5  E5 )
Anarchy for the U.K.
      C5                   ( F5  E5 )
It's coming sometime and maybe
   C5
I give a wrong time
              ( F5  E5 )
Stop a traffic line
      C5
Your future dream is a shopping scheme
       G5       F5  E5  D5    C5
'Cause I wanna be       anarchy
( F5  E5 ) C5
              In the city


Primeiro Solo:

(Parte 1)

E|-----12--------------14--------------12-------------|
B|-/13----13-------/15----15-------/13----13----------|
G|-----------14~-------------16~-------------14~------|
D|----------------------------------------------------|
A|----------------------------------------------------|
E|----------------------------------------------------|

E|-----14--------------12--------------14-------------|
B|-/15----15-------/13----13-------/15----15----------|
G|-----------16~-------------14~-------------16~------|
D|----------------------------------------------------|
A|----------------------------------------------------|
E|----------------------------------------------------|

E|-----12---------------------------------------------|
B|-/13----13------------------------------------------|
G|-----------14~--------------------------------------|
D|----------------------------------------------------|
A|----------------------------------------------------|
E|----------------------------------------------------|

(Parte 2)

E|----------------------------------------------------|
B|-12-12-12-12-13-13-13-13-13/15-15-15-15~~-----------|
G|-12-12-12-12-14-14-14-14-14/16-16-16-16~~-----------|
D|----------------------------------------------------|
A|----------------------------------------------------|
E|----------------------------------------------------|

(Parte 3)

E|----------------------------------------------------|
B|----------------------------------------------------|
G|----------------------------------------------------|
D|-10b12r10-9-10p9-------9-------------x-x------------|
A|-----------------10-12---------9-10\-x-x------------|
E|-------------------------10-12-------x-x------------|


Terceira Parte:

E|----------------------------------------------------|
B|----------------------------------------------------|
G|-5-5-5-5-5-5-5-5...---------------------------------|
D|----------------------------------------------------|
A|----------------------------------------------------|
E|----------------------------------------------------|

How many ways

To get what you want

I use the best

I use the rest

I use the enemy

I use anarchy
       G5         F5  E5  D5    C5
'Cause I want to be       anarchy
( F5  E5 ) C5
              It's the only way to be


Ponte: D  D9  D  D4  D  D9  D


Quarta Parte:

E|----------------------------------------------------|
B|----------------------------------------------------|
G|-5~~------------------------------------------------|
D|----------------------------------------------------|
A|----------------------------------------------------|
E|----------------------------------------------------|

Is this the M.P.L.A. Or

Is this the U.D.A.   Or

Is this the I.R.A.?

I thought it was the U.K.
    G5    F5    E5  D5   C5
Or just another    country
C5
   Another council tenacy


Final:

G5       F5  E5  D5     C5
I wanna be       anarchy
    G5       F5  E5  D5    C5
And I wanna be       anarchy

Oh, what a name
    G5       F5  E5  D5    C5
And I wanna be   an  anarchist

I get pissed, destroy
exibições 171.342
Acordes para:

    0 comentários

    mostrar mais comentários

    Conseguiu tocar?

    81 tocaram 0 ainda não

    Grave um vídeo tocando Anarchy In The U.K e mande pra gente!

    00:00 / 00:00
    outros vídeos desta música
    repetir qualidade Automático
    Outros vídeos desta música
    00:00 / 00:00
    Automático
    Capítulos
    • Tocando a música
    • Dicas iniciais / Equipamentos
    • Configuração do Efeito
    • Acordes da Introdução
    • Tocando Introdução
    • Ensinando Introdução
    • Dicas e Acordes Primeira Parte
    • Tocando Primeira Parte
    • Ensinando Primeira Parte
    • Dicas Segunda Parte
    • Tocando Segunda Parte
    • Dicas Solo
    • Tocando Solo
    • Solo - Parte 1 de 3
    • Solo - Parte 2 de 3
    • Solo - Parte 3 de 3
    • Tocando Solo (Lento)
    • Dicas Terceira Parte
    • Tocando Terceira Parte
    • Ensinando Terceira Parte
    • Acordes da Ponte
    • Tocando Ponte
    • Ensinando Ponte
    • Dicas Quarta Parte - Final
    • Tocando Quarta Parte - Final
    • Encerramento
    • Ficha técnica / Erros de Gravação
    OK