Notificações Amigos pendentes

      Sex Pistols

      Anarchy In The U.K

      153.758 exibições
      Tom: G
      Introdução: G5  F5  E5  D5  C5
      
      
      Primeira Parte:
      
      C5          ( F5  E5 )
      I'm an antichrist
      C5         ( F5  E5 )
      I'm an anarchist
              C5
      Don't know what I want
                       ( F5  E5 )
      But I know how to get  it
         C5
      I wanna destroy the passerby
             G5         F5  E5  D5    C5
      'Cause I want to be       anarchy
      ( F5  E5 ) C5             G5
                    No dog's body
      
      
      Segunda Parte:
      
      C5              ( F5  E5 )
      Anarchy for the U.K.
            C5                   ( F5  E5 )
      It's coming sometime and maybe
         C5
      I give a wrong time
                    ( F5  E5 )
      Stop a traffic line
            C5
      Your future dream is a shopping scheme
             G5       F5  E5  D5    C5
      'Cause I wanna be       anarchy
      ( F5  E5 ) C5
                    In the city
      
      
      Primeiro Solo:
      
      (Parte 1)
      
      
      E|-----12--------------14--------------12-------------|
      B|-/13----13-------/15----15-------/13----13----------|
      G|-----------14~-------------16~-------------14~------|
      D|----------------------------------------------------|
      A|----------------------------------------------------|
      E|----------------------------------------------------|
      
      
      E|-----14--------------12--------------14-------------|
      B|-/15----15-------/13----13-------/15----15----------|
      G|-----------16~-------------14~-------------16~------|
      D|----------------------------------------------------|
      A|----------------------------------------------------|
      E|----------------------------------------------------|
      
      
      E|-----12---------------------------------------------|
      B|-/13----13------------------------------------------|
      G|-----------14~--------------------------------------|
      D|----------------------------------------------------|
      A|----------------------------------------------------|
      E|----------------------------------------------------|
      
      
      (Parte 2)
      
      
      E|----------------------------------------------------|
      B|-12-12-12-12-13-13-13-13-13/15-15-15-15~~-----------|
      G|-12-12-12-12-14-14-14-14-14/16-16-16-16~~-----------|
      D|----------------------------------------------------|
      A|----------------------------------------------------|
      E|----------------------------------------------------|
      
      
      (Parte 3)
      
      
      E|----------------------------------------------------|
      B|----------------------------------------------------|
      G|----------------------------------------------------|
      D|-10b12r10-9-10p9-------9-------------x-x------------|
      A|-----------------10-12---------9-10\-x-x------------|
      E|-------------------------10-12-------x-x------------|
      
      
      
      Terceira Parte:
      
      
      E|----------------------------------------------------|
      B|----------------------------------------------------|
      G|-5-5-5-5-5-5-5-5...---------------------------------|
      D|----------------------------------------------------|
      A|----------------------------------------------------|
      E|----------------------------------------------------|
      
      
      How many ways
      
      To get what you want
      
      I use the best
      
      I use the rest
      
      I use the enemy
      
      I use anarchy
             G5         F5  E5  D5    C5
      'Cause I want to be       anarchy
      ( F5  E5 ) C5
                    It's the only way to be
      
      
      Ponte: D  D9  D  D4  D  D9  D
      
      
      Quarta Parte:
      
      
      E|----------------------------------------------------|
      B|----------------------------------------------------|
      G|-5~~------------------------------------------------|
      D|----------------------------------------------------|
      A|----------------------------------------------------|
      E|----------------------------------------------------|
      
      
      Is this the M.P.L.A. Or
      
      Is this the U.D.A.   Or
      
      Is this the I.R.A.?
      
      I thought it was the U.K.
          G5    F5    E5  D5   C5
      Or just another    country
      C5
         Another council tenacy
      
      
      Final:
      
      G5       F5  E5  D5     C5
      I wanna be       anarchy
          G5       F5  E5  D5    C5
      And I wanna be       anarchy
      
      Oh, what a name
          G5       F5  E5  D5    C5
      And I wanna be   an  anarchist
      
      I get pissed, destroy

      Comentários 26

      140 .
      • rafael rafael: Em 18/08/2016 01:40

        Vlw mito esse som #ViniciusDias

      • antoniolucilano1@hotmail,com.br antoniolucilano1@hotmail,com.br: Em 01/05/2015 17:47

        gostei de aprender o solo pois as notas eu ja sabia

      • Daniel Daniel: Em 12/10/2014 22:27

        tirei de boas no violão XD


      • jeanfelipe.reispa jeanfelipe.reispa: Em 07/10/2014 20:09

        Facil! Tirando solo!

      • Marcelo Marcelo: Em 07/10/2014 13:15

        guitar hero 3 !!!!

      • mel.andrade.9 mel.andrade.9: Em 30/05/2014 12:25

        Cadê o mito dos 3 acordes?! huauhahuhauhua

      • Eddy Eddy: Em 23/03/2013 20:03

        Punk rock é tenso hahaha

        • eric eric: Em 23/12/2013 18:23

          Comentário removido

      • vinyhendrix vinyhendrix: Em 18/02/2013 21:23

        punk nada o negosso é zeca pagodinho, e luan santana........ kkkkkkkkkkkkkkkkkkkkkkkkkkkkkkkkkkkkkkk ←←← só lixo isso kkk U>

        • Jonatan Jonatan: Em 07/09/2014 19:13

          Jovem, se você veio aqui só pra falar merda nem comente.

      140 cancelar

      conseguiu tocar?

      • •••
      Evandro Frossard Allemand1.885 visualizações
        ver covers de outras músicas »
        0:00 / 0:00
        1 versão de bateria exibições contribuição e correção
        1 versão de gaita exibições contribuição e correção
        play/pausefechar subir/descer velocidade
        6ª corda E5ª corda A4ª corda D3ª corda G2ª corda B1ª corda E
          acordes
          transcrição verificada v.inny instrutor de guitarra
          publicidade
          fechar
          ok