Maybe tomorrow

Stereophonics

 Stereophonics
Tom: B(acordes na forma do tom A#)
Capotraste na 1ª casa		
Intro 2x: Ebmaj7  Cm  Gm  F


Dmaj7
  I've been down and I'm wondering why
      Bm
These little black clouds keep walking around
     F#m       E
With me, with me

Dmaj7
  It wastes time and I'd rather be high
           Bm                                             F#m
Think I'll walk me outside and buy a rainbow smile but be free
            E
They're all free

Refrão:
Dmaj7       Bm
  So maybe tomorrow
             F#m    E
I'll find my wayyy home
Dmaj7       Bm
  So maybe tomorrow
             F#m    E
I'll find my wayyy home

Dmaj7
  I look around at a beautiful life
          Bm                                             F#m
Been the upperside of down been the inside of out but we breathe
   E
We breathe

Dmaj7                                    Bm
  I wanna breeze and an open mind I wanna swim in the ocean
                       F#m
Wanna take my time for me
    E
all me

Refrão:
Dmaj7       Bm
  So maybe tomorrow
             F#m    E
I'll find my wayyy home
Dmaj7       Bm
  So maybe tomorrow
             F#m    E
I'll find my wayyy home

Instrumental 4x:
Bm C# F#m E
Ma ma ma ma ...

(Refrão)




E|-------------------YURI--BO-NFA-DA|---BAGÉ-RS--------------------------------------|
B|----------19~----------19-19^-------19--21^22p19--19--21^22p19--19--21^22p19-------|
G|----19h21--------19h21--------19h21------------------------------------------------|
D|-----------------------------------------------------------------------------21~---|
A|-----------------------------------------------------------------------------------|
E|-----------------------------------------------------------------------------------|




E|-------------------YURI--BO-NFA-DA|---BAGÉ-RS----------------------------------------------|
B|----------19~----------19-19^-------19--21^22p19--19--21^22p19--19--21^22-22-22-22-22p19---|
G|----19h21--------19h21--------19h21--------------------------------------------------------|
D|----------------------------------------------------------------------------------------21~|
A|-------------------------------------------------------------------------------------------|
E|-------------------------------------------------------------------------------------------|

Comentários 3

  • Paolo Paolo: Postado em 19/12/2013 19:02

    Valeu ao Yuri pelo solo =)

  • zanarde zanarde: Postado em 05/02/2013 14:15

    Não com=nsigo fazer o solo :\

  • alexandrelucas1 alexandrelucas1: Postado em 31/08/2012 20:40

    Essa música é linda e facil de tocar, bem legal gostei da cifra ^^

Composição: João Buxixo / Kelly Jones / W. Jennings
Esse não é o compositor? Avise-nos.
Contribuição: Spike84 Correções: Eduardo , Yúri e mais 12 »
Exibir acordes »
publicidade
fechar