Maybe tomorrow

Stereophonics

 Stereophonics
Tom: A#
		
Intro 2x: Ebmaj7  Cm  Gm  F


E|----------------------6---------------------------------|
B|-----6h8------6h8--------8---------6h8-----6h8----8-----|
G|---7--------7-------7------------7-------7------7-------| (4x)
D|--------------------------------------------------------|
A|--------------------------------------------------------|
E|--------------------------------------------------------|


Ebmaj7
  I've been down and I'm wondering why
      Cm
These little black clouds keep walking around
     Gm       F
With me, with me

Ebmaj7
  It wastes time and I'd rather be high
           Cm                                             Gm
Think I'll walk me outside and buy a rainbow smile but be free
            F
They're all free

Refrão:
Ebmaj7       Cm
  So maybe tomorrow
             Gm    F
I'll find my wayyy home
Ebmaj7       Cm
  So maybe tomorrow
             Gm    F
I'll find my wayyy home

Ebmaj7
  I look around at a beautiful life
          Cm                                             Gm
Been the upperside of down been the inside of out but we breathe
   F
We breathe

Ebmaj7                                    Cm
  I wanna breeze and an open mind I wanna swim in the ocean
                       Gm
Wanna take my time for me
    F
all me

Refrão:
Ebmaj7       Cm
  So maybe tomorrow
             Gm    F
I'll find my wayyy home
Ebmaj7       Cm
  So maybe tomorrow
             Gm    F
I'll find my wayyy home

Instrumental 4x:
Cm D Gm F
Ma ma ma ma ...

(Refrão)



E|----------------YURI-BONFADA|--BAGÉ-RS---------------------------------|
B|---------8~---------8-8^------8--10^11p8--8--10^11p8--8--10^11p8-------|
G|----8h10-------8h10------8h10------------------------------------------|
D|-----------------------------------------------------------------10~---|
A|-----------------------------------------------------------------------|
E|-----------------------------------------------------------------------|



E|----------------YURI-BONFADA|--BAGÉ-RS-----------------------------------------|
B|---------8~---------8-8^------8--10^11p8--8--10^11p8--8--10^11-11-11-11-11p8---|
G|----8h10-------8h10------8h10--------------------------------------------------|
D|----------------------------------------------------------------------------10~|
A|-------------------------------------------------------------------------------|
E|-------------------------------------------------------------------------------|
Texto Colunas
Alterar tom ½ tom ½ tom
afinação acordes na letra esconder tabs mais »

Comentários (3)

  • Paolo Paolo: Postado em 19/12/2013 19:02

    Valeu ao Yuri pelo solo =)

  • zanarde zanarde: Postado em 05/02/2013 14:15

    Não com=nsigo fazer o solo :\

  • alexandrelucas1 alexandrelucas1: Postado em 31/08/2012 20:40

    Essa música é linda e facil de tocar, bem legal gostei da cifra ^^

Composição: João Buxixo / Kelly Jones / W. Jennings
Esse não é o compositor? Avise-nos.
Contribuição: Spike84 Correções: Bruno , victorlopes87 e mais 11 »
  1. Tudo Que Você Quiser - Luan Santana Manteve-se 6.122 exibições
  2. Lepo Lepo - Psirico Manteve-se 4.394 exibições
  3. Mozão - Lucas Lucco Manteve-se 4.201 exibições
  4. Logo Eu - Jorge e Mateus Manteve-se 4.020 exibições
  5. Pra Você - Onze:20 Manteve-se 4.019 exibições
  6. Gaveta - Fernando e Sorocaba Manteve-se 3.769 exibições
  7. Só Os Loucos Sabem - Charlie Brown Jr. Manteve-se 3.071 exibições
  8. Tempo Perdido - Legião Urbana Manteve-se 2.714 exibições
  9. Fui Fiel - Gusttavo Lima Manteve-se 2.713 exibições
  10. Domingo de Manha - Marcos e Belutti Manteve-se 2.289 exibições
  1. Jorge e Mateus- Manteve-se 23.884 exibições
  2. Legião Urbana- Manteve-se 21.696 exibições
  3. Luan Santana- Manteve-se 17.411 exibições
  4. Charlie Brown Jr.- Manteve-se 17.352 exibições
  5. Fernandinho- Manteve-se 14.841 exibições
  6. Católicas- Manteve-se 11.201 exibições
  7. Thalles Roberto- Manteve-se 11.085 exibições
  8. Gusttavo Lima- Manteve-se 11.009 exibições
  9. Victor e Leo- Manteve-se 10.721 exibições
  10. Bruno e Marrone- Manteve-se 10.310 exibições
Exibir acordes »

Cifras e tabs

Fórum Cifra Club

Aprenda

Cifra Club News

Mais Serviços Cifra Club ID

Studio Sol

©1996 - 2014 Cifra Club · o primeiro, maior e mais acessado do Brasil · 329 mil músicas · 6.0 milhões pessoas cadastradas

publicidade
fechar