Wonderwall

Oasis

 Oasis Compositor: Noel Gallagher
Tom: E(acordes na forma do tom D)
Capotraste na 2ª casa		
Intro 4x:  Em7  G    D4    A7(4)

Em7         G                             D4                    A7/4
  Today is gonna be the day that they're gonna throw it back to you
Em7            G                 D4                     A7/4
  By now you should've somehow realized what you gotta do
Em7                  G        D4              A7/4
I don't believe that anybody feels the way I do
           C9    D4    A7/4
About you now

Em7               G                              D4                   A7/4
   Backbeat, the word is on the street that the fire in your heart is out
Em7                 G                           D4                 A7/4
   I'm sure you've heard it all before but you never really had a doubt
Em7                  G        D4              A7/4
I don't believe that anybody feels the way I do
           Em7  G     D4     A7/4
about you now


   C9                D4               Em7
E|---5------4h5-4------------------------|
B|-----5----------5----------------------|
G|------------------4-------------0----0-|
D|--------0-------------------0h2---0h2--|
A|-5---------------------0h2-------------|
E|---------------------0-----------------|

    C9                D4               Em7
And all the roads we have to walk are winding


  C9       D D4 D      Em7
E|---5------4h5-4------------------------|
B|-----5----------5----------------------|
G|------------------4------------0-----0-|
D|--------0------------------0h2---0h2---|
A|-5---------------------0h2-------------|
E|---------------------0-----------------|

    C9                   D4                 Em7
And all the lights that lead us there are blinding

   C9      D D4 D
E|---5------4h5-4-----|
B|-----5----------5---|
G|------------------4-|
D|--------0-----------|
A|-5------------------|
E|--------------------|

  C9             D4
There are many things that I

   G        D4/F#    Em7      G
E|---5--------5--------5--------5-----|
B|-----5--------5--------5--------5---|
G|-------0--------4--------0--------0-|
D|------------------------------------|
A|------------------------------------|
E|-5--------4--------0--------5-------|


   A4
E|---------0------------0--------|
B|-----5-----5--------5---5------|
G|---4---4-----4----4-------4----|
D|-----------------------------4-|
A|-0--------------0--------------|
E|-------------------------------|


   A4
E|---------0-------------------------|
B|-----5-----5-----------------------|
G|---4---4-----4------0-----0--------|
D|----------------0h4---0h4---0h4----|
A|-0---------------------------------|
E|-----------------------------------|


       G       D4/F#    Em7        G          A7/4
would like to say to    you but I don't know how

         C9  Em7  G             Em7                   C9    Em7  G
Because maybe           You're gonna be the one that saves me
    Em7   C9   Em7  G                    Em7  C9   Em7   G  Em7 (deixe o Em7 soar)
And after all                You're my wonderwall

Em7          G                            D4                    A7/4
  Today was gonna be the day but they'll never throw it back to you
Em7            G                 D4                         A7/4
  By now you should've somehow realized what you're not to do
Em7                  G        D4              A7/4
I don't believe that anybody feels the way I do
           Em7  G  D4  A7/4
About you now


 C9        D D4 D     Em7
E|---5------4h5-4------------------------|
B|-----5----------5----------------------|
G|------------------4-------------0----0-|
D|--------0-------------------0h2---0h2--|
A|-5---------------------0h2-------------|
E|---------------------0-----------------|

    C9                  D4                  Em7
And all the roads that lead you there were winding


 C9        D D4 D   Em7
E|---5------4h5-4------------------------|
B|-----5----------5----------------------|
G|------------------4-------------0----0-|
D|--------0-------------------0h2---0h2--|
A|-5---------------------0h2-------------|
E|---------------------0-----------------|

    C9                   D4                 Em7
And all the lights that light the way are blinding

  C9        D D4 D
E|---5------4h5-4-----|
B|-----5----------5---|
G|------------------4-|
D|--------0-----------|
A|-5------------------|
E|--------------------|

  C9             D4
There are many things that I

   G        D4/F#    Em7      G
E|---5--------5--------5--------5-----|
B|-----5--------5--------5--------5---|
G|-------0--------4--------0--------0-|
D|------------------------------------|
A|------------------------------------|
E|-5--------4--------0--------5-------|


   A4
E|---------0------------0--------|
B|-----5-----5--------5---5------|
G|---4---4-----4----4-------4----|
D|-----------------------------4-|
A|-0--------------0--------------|
E|-------------------------------|


   A4
E|---------0-------------------------|
B|-----5-----5-----------------------|
G|---4---4-----4------0-----0--------|
D|----------------0h4---0h4---0h4----|
A|-0---------------------------------|
E|-----------------------------------|


       G       D4/F#    Em7        G          A7(4)
would like to say to    you but I don't know how

        C9  Em7  G             Em7                   C9      Em7  G
I said maybe           You're gonna be the one that saves me
    Em7   C9   Em7  G                   Em7   C9  Em7  G  Em7
And after all                You're my wonderwall
Texto Colunas
Alterar tom ½ tom ½ tom
afinação acordes na letra esconder tabs mais »

Comentários (136)

  • joaaoluucas joaaoluucas: Postado em 04/03/2014 13:53

    Luis, quase ninguém aqui curte Oasis, eles curtem Wonderwall... pense nisso kk

  • guilherme.souzaferraz guilherme.souzaferraz: Postado em 07/02/2014 23:35

    Por incrível que pareça, a única dificuldade q tô tendo é decorar a ordem dos acordes :P...

    • Mateus Filipe Mateus Filipe: Postado em 19/03/2014 21:40

      mas isso com tempo vc acostuma... :)

  • Luís Pedro Luís Pedro: Postado em 16/01/2014 14:57

    Galera, vcs que (como eu) curtem Oasis, deem uma passada na minha página da banda no facebook: The Best of Oasis
    Posto músicas e fotos :3

  • raul.diasbarboza raul.diasbarboza: Postado em 14/11/2013 21:31

    prefiro Em - G - A4/D - C

  • raul.diasbarboza raul.diasbarboza: Postado em 08/11/2013 14:38

    o que quebra é esse Em7, sem a sétima fica melhor, acho eu...

  • dan_dls.09 dan_dls.09: Postado em 31/10/2013 19:39

    Galera, confere o cover que fiz no meu canal YT, só por Wonderwall Danilo Leite. Só peço desculpa pelo audio, to sem mic ainda.

  • joao gabriel joao gabriel: Postado em 29/10/2013 15:18

    oasis foda

  • joao gabriel joao gabriel: Postado em 29/10/2013 15:17

    muito facil de tocar mais mi fudi pra cantar

  • fezao1 fezao1: Postado em 20/08/2013 20:27

    o solo é

    E------------------5-------
    B------------------------7-
    G----7---6---7-----------

    repete por 4x!!

    são as tres ultimas cordas!

    • iago.santoni iago.santoni: Postado em 02/01/2014 22:50

      valeu cara eu toquei essa musica na minha festa junina todos gostaram po cifra club coloca champagna supernova ai valeu

    • Matias Matias: Postado em 24/01/2014 00:36

      o solo final é


      G|------------0----------------|
      D|-----------------2-----------|
      A|---3---2----------------------|

Exibindo 12 de 136 comentários Mostrar mais ver todos »
Composição: Emanuel Olsson / Noel Gallagher / Paul Marazzi
Esse não é o compositor? Avise-nos.
Contribuição: Mário3 Correções: Anna Gabriella »
  1. Tudo Que Você Quiser - Luan Santana Manteve-se 5.838 exibições
  2. Lepo Lepo - Psirico Manteve-se 4.258 exibições
  3. Mozão - Lucas Lucco Manteve-se 4.092 exibições
  4. Logo Eu - Jorge e Mateus Manteve-se 3.677 exibições
  5. Gaveta - Fernando e Sorocaba Manteve-se 3.251 exibições
  6. Só Os Loucos Sabem - Charlie Brown Jr. Manteve-se 2.945 exibições
  7. Pra Você - Onze:20 Manteve-se 2.783 exibições
  8. Tempo Perdido - Legião Urbana Manteve-se 2.356 exibições
  9. Fui Fiel - Gusttavo Lima Manteve-se 2.236 exibições
  10. Na Linha do Tempo - Victor e Leo Manteve-se 2.111 exibições
  1. Jorge e Mateus- Manteve-se 22.167 exibições
  2. Legião Urbana- Manteve-se 19.327 exibições
  3. Luan Santana- Manteve-se 17.248 exibições
  4. Charlie Brown Jr.- Manteve-se 16.750 exibições
  5. Fernandinho- Manteve-se 14.218 exibições
  6. Thalles Roberto- Manteve-se 10.904 exibições
  7. Católicas- Manteve-se 10.314 exibições
  8. Aline Barros- Manteve-se 10.062 exibições
  9. Victor e Leo- Manteve-se 10.039 exibições
  10. Gusttavo Lima- Manteve-se 9.893 exibições
Exibir acordes »

Cifras e tabs

Fórum Cifra Club

Aprenda

Cifra Club News

Mais Serviços Cifra Club ID

Studio Sol

©1996 - 2014 Cifra Club · o primeiro, maior e mais acessado do Brasil · 329 mil músicas · 5.9 milhões pessoas cadastradas

publicidade
fechar