Supersonic

Oasis

 Oasis
Tom: D
		
Intro:

E|-------0---------------------
B|---------0-------------------
G|-----2-----2---------2-------  (4x)
D|---4---------4-------2---4---
A|-4-------------4-----0---2---
E|-----------------------------


         F#m          A  B
I need to be myself
         F#m          A  B
I can be no one else
     F#m                A       B
I'm feeling supersonic, give gin and tonic
F#m                     A          B
You can have it all but how much do you want it?
    F#m               A  B
You make me laugh
            F#m         A  B
Give me your autograph
      F#m                   A B
Can I ride with you in your BMW?
        F#m                 A         B
You can sail with me in my yellow submarine

            E
You need to find out
                                      F#m
'Cos no one's gonna tell you what I'm on about
            E
You need to find a way to what you wanna say
C#7
    But before tomorrow
     D         A         E        F#m
'Cos my friend said he'd take you home
   D         A      E     F#m
He sits in a corner all alone
D        A       E     F#m
He lives under a waterfall
D          A        E          F#m
Nobody can see him, nobody can ever hear him call

E|---------------------------------------
B|-12-(14)-12--10-12-10---------10-------
G|----------------------11-9-11----11-9--
D|---------------------------------------
A|---------------------------------------
E|---------------------------------------



E|----------------12---------------------------------
B|-12-(14)-12--10----12-(14)-12-10-------12p10-----10
G|----------------------------------9h11-------9h10--
D|---------------------------------------------------
A|---------------------------------------------------
E|---------------------------------------------------



E|--------------------------------12-----------------
B|-10---10-12-(14)-12--10-12-(14)----(14)-12-10------
G|-9-------------------------------------------------
D|---------------------------------------------------
A|---------------------------------------------------
E|---------------------------------------------------


            F#m          A  B
You need to be yourself
           F#m           A  B
You can be no one else
  F#m                            A         B
I know a girl called Elisa, she's into Alka Seltzer
    F#m                           A         B
She sniffs it through a cane in a supersonic train
    F#m                  A  B
She made me laugh
          F#m            A  B
I got her autograph
    F#m                   A      B
She done it with a doctor on a helicopter
       F#m                   A          B
She's sniffin in her tissue, sellin' the big issue

             E
She needs to find out
                                       F#m
"Cos no one is gonna tell you what I'm on about
             E
She needs to find a whay for what she wants to say
C#7
    But before tomorrow

     D         A         E        F#m
'Cos my friend said he'd take you home
   D         A      E     F#m
He sits in a corner all alone
D        A       E     F#m
He lives under a waterfall
D          A        E          F#m
Nobody can see him, nobody can ever hear him call

E|---------------------------------------
B|-12-(14)-12--10-12-10---------10-------
G|----------------------11-9-11----11-9--
D|---------------------------------------
A|---------------------------------------
E|---------------------------------------



E|----------------12---------------------------------
B|-12-(14)-12--10----12-(14)-12-10-------12p10-----10
G|----------------------------------9h11-------9h10--
D|---------------------------------------------------
A|---------------------------------------------------
E|---------------------------------------------------



E|---------------------------------------------------
B|-12-(14)-12--10---------10---------10---------10---
G|----------------11-9-11----11-9-11----11-9-11------
D|---------------------------------------------------
A|---------------------------------------------------
E|---------------------------------------------------



E|---------------------------------------------------
B|-12-12-12-12---------------------------------------
G|---------------------------------------------------
D|--------------------------2-2--------------2-2-2h4-
A|--------------12/2--0-2h4-----2h4-2-2--2h4---------
E|---------------------------------------------------



E|---------------------------------------------------
B|---------------------------------------------------
G|--------------2-4-(6)-4-2-4-2----------------------
D|--------2-2h4-----------------4--------2-2---------
A|-0-2h4--------------------------0-2h4------2h4-2-2-
E|---------------------------------------------------



E|---------------------------------------------------
B|-------------------------------5-------------------
G|------------------------2-4-(6)--4-----------------
D|-----2-2-2h4-------2-2h4---------------------------
A|-2h4---------0-2h4---------------------------------
E|---------------------------------------------------



E|-------------------------------12-(14)-12-10-------
B|-12-12-12-12-12-12-12-12-12-12---------------12-12-
G|---------------------------------------------------
D|---------------------------------------------------
A|---------------------------------------------------
E|---------------------------------------------------



E|--------9--9--9--9--9--9--9--9--9--9--12-(14)-12-10
B|-12-10--12-12-12-12-12-12-12-12-12-12--------------
G|---------------------------------------------------
D|---------------------------------------------------
A|---------------------------------------------------
E|---------------------------------------------------



E|------------12-(14)-12-10--------------------------
B|-12-12-12-10-------------12-12-(14)-12--10---------
G|-------------------------------------------12------
D|--------------------------------------------------
A|--------------------------------------------------
E|--------------------------------------------------



E|12-(14)-12-10----------------------12-(14)-12-10--
B|--------------12-12-(14)-12--10-------------------
G|--------------------------------12----------------
D|--------------------------------------------------
A|--------------------------------------------------
E|--------------------------------------------------



E|-12-12-(14)-12-10-12-(14)-12-10---10--------------
B|--------------------------------12--12-10-12-(14)-
G|--------------------------------------------------
D|--------------------------------------------------
A|--------------------------------------------------
E|--------------------------------------------------



E|--------------------------------------------------
B|-12-----------------------------------------------
G|---11---------------------------------------------
D|--------------------------------------------------
A|--------------------------------------------------
E|--------------------------------------------------

Texto Colunas
Alterar tom ½ tom ½ tom
afinação acordes na letra esconder tabs mais »

Comentários 12

  • Luís Pedro Luís Pedro: Postado em 16/01/2014 14:59

    Galera, vcs que (como eu) curtem Oasis, deem uma passada na minha página da banda no facebook: The Best of Oasis
    Posto músicas e fotos :3

  • daniel.bragareis daniel.bragareis: Postado em 08/12/2013 20:31

    fui o unico a quase ficar sem ar tentando cantar essa musica??

  • joao gabriel joao gabriel: Postado em 01/11/2013 14:37

    adoro essa musica a tradução e muito firme

  • alvarojunqueira alvarojunqueira: Postado em 25/01/2013 19:19

    >tinha. Ao invés de reclamar, vc deveria ter chegado e feito antes, quando ninguém queria fazer. E tenha educação. Vc não é o Noel (you wish

  • alvarojunqueira alvarojunqueira: Postado em 25/01/2013 19:17

    Rotiv007: eu mandei essa cifra quando ainda estava começando a tocar guitarra. Foi quando... lá por 2001. Na época a cifra q tinha nem solo>

  • beatlesekinks beatlesekinks: Postado em 09/08/2012 18:18

    foda e fácil!

  • mattchaz mattchaz: Postado em 09/04/2012 20:24

    Facin Facin

  • se7ee se7ee: Postado em 05/04/2012 12:40

    Video aula que o ritmo eu ñ peguei

  • rotiv007 rotiv007: Postado em 15/01/2012 20:20

    parece que ficam com preguiça de por a cifra de riffs - sendo assim eu mesmo vo colocar essa merd**

  • rotiv007 rotiv007: Postado em 15/01/2012 20:19

    ESSA MÚSICA É MAIOR MOLEZA, MAIS NUNCA POE A VERSÃO COM RIFFS, SE NINGUEM POR EU MESMO PONHO.

Exibindo 10 de 12 comentários Mostrar mais ver todos »
Composição: Emanuel Olsson / Noel Gallagher / Paul Marazzi
Esse não é o compositor? Avise-nos.
Contribuição: Rock 'n' Roll Star® Correções: lukas_t »
  1. Domingo de Manhã - Marcos e Belutti Manteve-se 98.125 exibições
  2. Logo Eu - Jorge e Mateus Manteve-se 47.629 exibições
  3. Pra Você - Onze:20 Manteve-se 47.538 exibições
  4. Recaídas - Henrique e Juliano Manteve-se 36.822 exibições
  5. Counting Stars - OneRepublic Manteve-se 36.691 exibições
  6. Até Você Voltar - Henrique e Juliano Manteve-se 36.073 exibições
  7. Aonde Quer Que Eu Vá - Os Paralamas do Sucesso Manteve-se 34.413 exibições
  8. Só Os Loucos Sabem - Charlie Brown Jr. Manteve-se 32.028 exibições
  9. Pais e Filhos - Legião Urbana Manteve-se 29.920 exibições
  10. Happy - Pharrell Williams Manteve-se 25.260 exibições
  1. Jorge e Mateus- Manteve-se 267.243 exibições
  2. Legião Urbana- Manteve-se 209.293 exibições
  3. Charlie Brown Jr.- Manteve-se 155.826 exibições
  4. Henrique e Juliano- Manteve-se 149.760 exibições
  5. Marcos e Belutti- Manteve-se 119.806 exibições
  6. Fernandinho- Manteve-se 119.278 exibições
  7. Luan Santana- Manteve-se 112.775 exibições
  8. Bruno e Marrone- Manteve-se 109.729 exibições
  9. Victor e Leo- Manteve-se 95.555 exibições
  10. Thalles Roberto- Manteve-se 94.294 exibições
Exibir acordes »

Cifras e tabs

Fórum Cifra Club

Aprenda

Cifra Club News

Mais Serviços Cifra Club ID

Studio Sol

©1996 - 2014 Cifra Club · o primeiro, maior e mais acessado do Brasil · 337 mil músicas · 6.2 milhões pessoas cadastradas

publicidade
fechar