Cifra Club

Supersonic

Oasis

Cifra: Principal
exibições 194.213
Tom: A
[Intro]

E|-------0----------------------------------|
B|---------0--------------------------------|
G|-----2-----2---------2--------------------|
D|---4---------4-------2---4----------------|
A|-4-------------4-----0---2----------------|
E|------------------------------------------|


[Riff 1]

E|---7--------------------------------------|
B|-----5------------------------------------|
G|---------6--------------------------------|  
D|------------------------------------------|
A|------------------------------------------|
E|------------------------------------------|

[Riff 2]

E|------------------------------------------|
B|------------------------------------------|    
G|------------------------------------------|
D|-----------4------------------------------|     
A|----2b---0--------------------------------|
E|------------------------------------------|

        F#5   E5    F#5  A  B
I need to be myself
         F#m  E5  F#5    A  B
I can't be no one else
     F#m     E5   F#5      A             B
I'm feeling supersonic, give me gin and tonic
         F#m E5 F#5      A           B
You can have it all but how much do you want it?
          F#m     E5  F#5  A  B
You make me laugh
         F#m E5 F#5    A  B
Give me your autograph
         F#m     E5 F#5  A       B
Can I ride with you in your BMW?
         F#m  E5   F#5   A     B
You can sail with me in my yellow submarine


[Ponte]

[Riff 1]

E|--------------------------------------|
B|--------------------------------------|
G|--------------------------------------| 
D|--------------------------------------|
A|---2-2-4-2-2-2-4-2--------------------|
E|-0-0-0-0-0-0-0-0-0--------------------|

[Riff 2]

E|---7----------------------------------|
B|-----5--------------------------------|
G|---------6----------------------------|  
D|--------------------------------------|
A|--------------------------------------|
E|--------------------------------------|

[Riff 3]

E|--------------4-----------------------|
B|-----6---------------6----------------|
G|-4-------4--------------6---4---------|     
D|-6---------6------------------6-------|
A|--------------------------------------|
E|--------------------------------------|

             E
You need to find out
                                      F#m
'Cos no one's gonna tell you what I'm on about
             E
You need to find a way to what you wanna say
C#7
    But before tomorrow

[Refrão]

[Riff]

E|-------------------------------------|
B|-------------------------------------|
G|-------------------------------------|  
D|------2--------------------2---------|
A|-2s4----4--2---0---0---2s4---4-------|
E|-------------------------------2-----|

      D         A         E        F#m
'Cos my friend said he'd take you home
    D         A     E     F#m
He sits in a corner all alone
 D       A        E    F#m
He lives under a waterfall
 D          A        E         F#m                 D  A
Nobody can see him, nobody can ever hear him call

[Solo]

E|------------------------------------------------------------------|
B|-------------------------------------------------------------17---|
G|--16B-16B|--14---16--14----------14-------------16B|--16B|--14----|  
D|-----------------------16-14-16----16--14-------------------------|
A|------------------------------------------------------------------|
E|------------------------------------------------------------------|

E|------------------------------------------------------------------|
B|------------------------------------------------------------------|
G|--16b--16--14-------14h16p14-----14---16B-16B|--14--16--14--------|  
D|--------------14h16----------16---------------------------16-14-16|
A|------------------------------------------------------------------|
E|------------------------------------------------------------------|

E|------------------------------------------------------------------|
B|------------------------17----------------------------------------|
G|14--------16B|--16B|--14------16b-16-14--------14h16p14----14-----|  
D|---16-14-------------------------------14h16----------16----------|
A|------------------------------------------------------------------|
E|------------------------------------------------------------------|

E|--0------------4--------------------------------------------------|
B|--0------------6--------------------------------------------------|
G|--1------------4--------------------------------------------------|
D|---------------6-----------------------------------4--------------|
A|---------------4----------------------2b-------0------------------|
E|----------0-------------------------------------------------------|

          F#5   E5  F#5  A  B
You need to be yourself
         F#5  E5  F#5   A  B
You can be no one else
    F#5   E5      F#5      A         B
I know a girl called Elisa, she's into Alka Seltzer
      F#5  E5     F#5      A         B
She sniffs it through a cane in a supersonic train

           F#5    E5    F#5  A  B
And she makes me laugh
          F#5   E5   F#5  A  B
I got her autograph
     F#5     E5     F#5   A         B
She done it with a doctor on a helicopter
  F#5   E5        F#5     A            B
She's sniffin in her tissue, sellin' the big issue

         E
And she finds out
                                       F#m
"Cos no one is gonna tell you what I'm on about
              E
She needs to find a way for what she wants to say
C#7
    But before tomorrow

      D         A         E        F#m
'Cos my friend said he'd take you home
    D         A     E     F#m
He sits in a corner all alone
 D       A        E    F#m
He lives under a waterfall
 D          A        E         F#m                D A
Nobody can see him, nobody can ever hear him call



E|-------------------------------------------------------------------|
B|-------------------------------------------------------------17----|
G|--16B-16B|--14---16--14----------14-------------16B|--16B|--14-----|       
D|-----------------------16-14-16----16--14--------------------------|
A|-------------------------------------------------------------------|
E|-------------------------------------------------------------------|

E|-------------------------------------------------------------------|
B|-------------------------------------------------------------------|
G|--16b--16--14-------14h16p14-----14---16B-16B|--14--16--14---------| 
D|--------------14h16----------16---------------------------16-14-16-|
A|-------------------------------------------------------------------|
E|-------------------------------------------------------------------|

E|-------------------------------------------------------------------|
B|-------------------------------------------------------------------|
G|14-------------14---16b--16b--16b--16b---16bp14---14-14---14-14h16-|  
D|---16-14----16---------------------------------16------------------|
A|-------------------------------------------------------------------|
E|-------------------------------------------------------------------|

E|-------------------------------------------------------------------|
B|-------------------------------------------------------------------|
G|-14----16B|--16B|--14--16---14----------14-------------------------|
D|-----------------------------16-14-16----16-14---16B|--16B|--14--16|
A|-------------------------------------------------------------------|
E|-------------------------------------------------------------------|

E|-------------------------------------------------------------------|
B|-------------------------------------------------------------------|
G|-16b--16--14------- 14h16-------14--16B-16B|--14--16--14---------14| 
D|--------------14h16-------14h16-------------------------16-14-16---|
A|-------------------------------------------------------------------|
E|-------------------------------------------------------------------|

E|-------------------------------------------------------------------|
B|-------------------------------------------------------------------|
G|--------------14----------14---16b---16b-16b-16b-----16--16--0-----|  
D|--16--14--16-----16-14-16------------------------------------------|
A|-------------------------------------------------------------------|
E|-------------------------------------------------------------------|

E|-------------------------------------------------------------------|
B|-------------------------------------------------------------------|
G|--14-----14---14----14--14----14-----14------14-----14-----14---14-|  
D|--14h16--16---14----14--14h16-14-----14h16---14-----14h16--14---14-|
A|-------------------------------------------------------------------|
E|-------------------------------------------------------------------|

E|-------------------------------------------------------------------|
B|-------------------------------------------------------------------|
G|--14----14--14---14--14-----------14---16-16b---16b--16b----14---0-|  
D|--14h16-----14---14--14h16--14----14-------------------------------|
A|-------------------------------14----------------------------------|
E|-------------------------------------------------------------------|
                                                                         
E|-------------------------------------------------------------------|      
B|-------------------------------------------------------------------|  
G|--14----14--14---14-14-14----14----14--14----14----14--------14--14|
D|--14h16-----14---14-14-14h16-14----14--14h16-14----14h16-14--14--14|
A|-------------------------------------------------------------------|
E|-------------------------------------------------------------------|

E|-------------------------------------------------------------------|
B|-------------------------------------------------------------------|
G|--14------14----14--16--14---16b--16b-16b-16bp14-----14------------|  
D|--14h16---14-------------------------------------16----------------|
A|-------------------------------------------------------------------|
E|-------------------------------------------------------------------|
Acordes para:
    Composição: Noel GallagherColaboração e revisão:

    0 comentários

      mostrar mais comentários

      Conseguiu tocar?

      37tocaram0ainda não

      Grave um vídeo tocando Supersonic e mande pra gente!

      00:00 / 00:00
      outros vídeos desta música
      repetirqualidadeautomática
      Outro vídeos desta música
        00:00 / 00:00
        automática
        OK