Notificações Amigos pendentes

      Oasis

      Supersonic

      170.816 exibições
      Tom: A
      Intro:
      
      
      E|-------0---------------------|
      B|---------0-------------------|
      G|-----2-----2---------2-------|  (4x)
      D|---4---------4-------2---4---|
      A|-4-------------4-----0---2---|
      E|-----------------------------|
      
      
      Verso 1:
      
      (Riff 1)
      
      E|---7-------|
      B|-----5-----|
      G|---------6-|  
      D|-----------|
      A|-----------|
      E|-----------|
      
      
      (Riff 2)
      
      E|--------------|
      B|--------------|    
      G|--------------|
      D|-----------4--|     
      A|----2b---0----|
      E|--------------|
      
      
               F#5  E5  F#5     A  B
      I need to be myself
               F#m  E5  F#5     A  B
      I can't be no one else
          F#m      E5 F#5       A              B
      I'm feeling supersonic, give me gin and tonic
              F#m   E5  F#5     A             B
      You can have it all but how much do you want it?
               F#m  E5 F#5  A  B
      You make me laugh
               F#m  E5 F#5  A  B
      Give me your autograph
               F#m  E5 F#5    A    B
      Can I ride with you in your BMW?
               F#m    E5   F#5    A      B
      You can sail with me in my yellow submarine
      
      Ponte:
      
      (Riff 1)
      
      E|--------------------|
      B|--------------------|
      G|--------------------| 
      D|--------------------|
      A|---2-2-4-2-2-2-4-2--|
      E|-0-0-0-0-0-0-0-0-0--|
      
      
      (Riff 2)
      
      E|---7-------|
      B|-----5-----|
      G|---------6-|  
      D|-----------|
      A|-----------|
      E|-----------|
      
      
      (Riff 3)
      
      E|--------------4-----------------|
      B|-----6---------------6----------|
      G|-4-------4--------------6---4---|     
      D|-6---------6------------------6-|
      A|--------------------------------|
      E|--------------------------------|
      
      
                  E
      You need to find out
                                            F#m
      'Cos no one's gonna tell you what I'm on about
                  E
      You need to find a way to what you wanna say
      C#7
          But before tomorrow
      
      Refrão:
      
      (Riff 1)
      
      E|-----------------------------------|
      B|-----------------------------------|
      G|-----------------------------------|  
      D|------2--------------------2-------|
      A|-2s4----4--2---0---0---2s4---4-----|
      E|-------------------------------2---|
      
      
           D         A         E        F#m
      'Cos my friend said he'd take you home
         D         A      E     F#m
      He sits in a corner all alone
      D        A       E     F#m
      He lives under a waterfall
      D          A        E          F#m                 D  A
      Nobody can see him, nobody can ever hear him call
      
      Solo:
      
      
      E|-------------------------------------------------------------------|
      B|-------------------------------------------------------------17----|
      G|--16B-16B|--14---16--14----------14-------------16B|--16B|--14-----|  
      D|-----------------------16-14-16----16--14--------------------------|
      A|-------------------------------------------------------------------|
      E|-------------------------------------------------------------------|
      
      
      E|-------------------------------------------------------------------|
      B|-------------------------------------------------------------------|
      G|--16b--16--14-------14h16p14-----14---16B-16B|--14--16--14---------|  
      D|--------------14h16----------16---------------------------16-14-16-|
      A|-------------------------------------------------------------------|
      E|-------------------------------------------------------------------|
      
      
      E|-------------------------------------------------------------------|
      B|------------------------17-----------------------------------------|
      G|14--------16B|--16B|--14------16b-16-14--------14h16p14----14------|  
      D|---16-14-------------------------------14h16----------16-----------|
      A|-------------------------------------------------------------------|
      E|-------------------------------------------------------------------|
      
      
      E|--0------------4---------------------------------------------------|
      B|--0------------6---------------------------------------------------|
      G|--1------------4---------------------------------------------------|
      D|---------------6-----------------------------------4---------------|
      A|---------------4----------------------2b-------0-------------------|
      E|----------0--------------------------------------------------------|
      
      
                 F#5  E5  F#5     A  B
      You need to be yourself
                 F#5  E5  F#5     A  B
      You can be no one else
           F#5    E5      F#5     A         B
      I know a girl called Elisa, she's into Alka Seltzer
           F#5    E5      F#5     A         B
      She sniffs it through a cane in a supersonic train
      
                 F#5  E5  F#5     A  B
      And she makes me laugh
                F#5  E5  F#5     A  B
      I got her autograph
           F#5    E5      F#5     A         B
      She done it with a doctor on a helicopter
           F#5    E5      F#5     A         B
      She's sniffin in her tissue, sellin' the big issue
      
                   E
      And she finds out
                                             F#m
      "Cos no one is gonna tell you what I'm on about
                   E
      She needs to find a way for what she wants to say
      C#7
          But before tomorrow
      
           D         A         E        F#m
      'Cos my friend said he'd take you home
         D         A      E     F#m
      He sits in a corner all alone
      D        A       E     F#m
      He lives under a waterfall
      D          A        E          F#m                D A
      Nobody can see him, nobody can ever hear him call
      
      Outro:
      
      
      E|-------------------------------------------------------------------|
      B|-------------------------------------------------------------17----|
      G|--16B-16B|--14---16--14----------14-------------16B|--16B|--14--------|       
      D|-----------------------16-14-16----16--14--------------------------|
      A|-------------------------------------------------------------------|
      E|-------------------------------------------------------------------|
      
      
      E|-------------------------------------------------------------------|
      B|-------------------------------------------------------------------|
      G|--16b--16--14-------14h16p14-----14---16B-16B|--14--16--14----------| 
      D|--------------14h16----------16---------------------------16-14-16-|
      A|-------------------------------------------------------------------|
      E|-------------------------------------------------------------------|
      
      
      E|-------------------------------------------------------------------|
      B|-------------------------------------------------------------------|
      G|14-------------14---16b--16b--16b--16b---16bp14---14-14---14-14h16-|  
      D|---16-14----16---------------------------------16------------------|
      A|-------------------------------------------------------------------|
      E|-------------------------------------------------------------------|
      
      
      E|-------------------------------------------------------------------|
      B|-------------------------------------------------------------------|
      G|-14----16B|--16B|--14--16---14----------14---------------------------|
      D|-----------------------------16-14-16----16-14---16B|--16B|--14--16--|
      A|-------------------------------------------------------------------|
      E|-------------------------------------------------------------------|
      
      
      E|-------------------------------------------------------------------|
      B|-------------------------------------------------------------------|
      G|-16b--16--14------- 14h16-------14--16B-16B|--14--16--14----------14| 
      D|--------------14h16-------14h16-------------------------16-14-16---|
      A|-------------------------------------------------------------------|
      E|-------------------------------------------------------------------|
      
      
      E|-------------------------------------------------------------------|
      B|-------------------------------------------------------------------|
      G|--------------14----------14---16b---16b-16b-16b-----16--16--0-----|  
      D|--16--14--16-----16-14-16------------------------------------------|
      A|-------------------------------------------------------------------|
      E|-------------------------------------------------------------------|
      
      
      E|-------------------------------------------------------------------|
      B|-------------------------------------------------------------------|
      G|--14-----14---14----14--14----14-----14------14-----14-----14---14-|  
      D|--14h16--16---14----14--14h16-14-----14h16---14-----14h16--14---14-|
      A|-------------------------------------------------------------------|
      E|-------------------------------------------------------------------|
      
      
      E|-------------------------------------------------------------------|
      B|-------------------------------------------------------------------|
      G|--14----14--14---14--14-----------14---16-16b---16b--16b----14---0-|  
      D|--14h16-----14---14--14h16--14----14-------------------------------|
      A|-------------------------------14----------------------------------|
      E|-------------------------------------------------------------------|
      
                                                                               
      
      E|-------------------------------------------------------------------|      
      B|-------------------------------------------------------------------|  
      G|--14----14--14---14-14-14----14----14--14----14----14--------14--14|
      D|--14h16-----14---14-14-14h16-14----14--14h16-14----14h16-14--14--14|
      A|-------------------------------------------------------------------|
      E|-------------------------------------------------------------------|
      
      
      E|-------------------------------------------------------------------|
      B|-------------------------------------------------------------------|
      G|--14------14----14--16--14---16b--16b-16b-16bp14-----14------------|  
      D|--14h16---14-------------------------------------16----------------|
      A|-------------------------------------------------------------------|
      E|-------------------------------------------------------------------|
      
        Composição: Noel GallagherColaboração e revisão:
        • italolaure
        • lukas_t
        • rebecca_kk
        • Rock 'n' Roll Star®

        Comentários 12

        140 .
        • Luís Pedro Luís Pedro: Em 16/01/2014 14:59

          Galera, vcs que (como eu) curtem Oasis, deem uma passada na minha página da banda no facebook: The Best of Oasis
          Posto músicas e fotos :3

        • daniel.bragareis daniel.bragareis: Em 08/12/2013 20:31

          fui o unico a quase ficar sem ar tentando cantar essa musica??

        • joao gabriel joao gabriel: Em 01/11/2013 14:37

          adoro essa musica a tradução e muito firme

        • alvarojunqueira alvarojunqueira: Em 25/01/2013 19:19

          >tinha. Ao invés de reclamar, vc deveria ter chegado e feito antes, quando ninguém queria fazer. E tenha educação. Vc não é o Noel (you wish

        • alvarojunqueira alvarojunqueira: Em 25/01/2013 19:17

          Rotiv007: eu mandei essa cifra quando ainda estava começando a tocar guitarra. Foi quando... lá por 2001. Na época a cifra q tinha nem solo>

        • beatlesekinks beatlesekinks: Em 09/08/2012 18:18

          foda e fácil!

        • mattchaz mattchaz: Em 09/04/2012 20:24

          Facin Facin

        • se7ee se7ee: Em 05/04/2012 12:40

          Video aula que o ritmo eu ñ peguei

        • rotiv007 rotiv007: Em 15/01/2012 20:20

          parece que ficam com preguiça de por a cifra de riffs - sendo assim eu mesmo vo colocar essa merd**

        • rotiv007 rotiv007: Em 15/01/2012 20:19

          ESSA MÚSICA É MAIOR MOLEZA, MAIS NUNCA POE A VERSÃO COM RIFFS, SE NINGUEM POR EU MESMO PONHO.

        140 cancelar

        conseguiu tocar?

        • •••

        covers

        Grave um vídeo tocando Supersonic e mande pra gente!

        Ex.: http://www.youtube.com/watch?v=0IvSvIwGdwk
        ver covers de outras músicas »
        0:00 / 0:00

        Capítulos

          2 versões de violão dificuldade exibições contribuição e correção
          2 versões de guitarra dificuldade exibições contribuição e correção
          2 versões de cavaco dificuldade exibições contribuição e correção
          2 versões de teclado dificuldade exibições contribuição e correção
          4 versões de baixo exibições contribuição e correção
          2 versões de bateria exibições contribuição e correção
          2 versões de Guitar Proformatodownloadscontribuição
          play/pausefechar subir/descer velocidade
          6ª corda E5ª corda A4ª corda D3ª corda G2ª corda B1ª corda E
            acordes
            publicidade
            fechar
            ok