Isn´t She Lovely

Stevie Wonder

 Stevie Wonder
Tom: A
		
Intro: C#m7  F#7  A6/B  E

               C#m7   F#7                 A6/B      E
Isn´t she lovely,             isn´t she wonderful
              C#m7     F#7                      A6/B      E
isn´t she precious         less than one minute old

           Amaj7                             Ab7
I never thought through love we'd be
           C#m7               F#7
Making one as lovely as she
                  A6/B    A/B    Aadd9   E
But isn't she lovely  made   from     love

               C#m7   F#7                 A6/B      E
Isn't she pretty             Truly the angel's best
                   C#m7 F#7              A6/B                E
Boy, I'm so happy       We have been heaven blessed

         Amaj7                       Ab7
I can't believe what God has done
                 C#m7               F#7
through us he's given life to one
                  A6/B    A/B   Aadd9  E
But isn't she lovely made  from    love


Solo (Dica: Tente solar num estilo mais livre, varie o tema o quanto quiser e esbanje nos slides e vibratos!)


E|--------------|--------------------------|--------------------------------|----------------------|
B|--9-10-9------|--9-9-9-10-9--------------|--9-12-9------------------------|--9-10-9--------------|
G|---------11--9|-------------11--9--------|---------11--11/13-9------9h11-9|---------11--9--9/11\9|
D|--------------|--------------------9h11p9|----------------------9h11------|----------------9/11\9|
A|--------------|--------------------------|--------------------------------|----------------------|
E|--------------|--------------------------|--------------------------------|----------------------|



E|----------9---12-9---12-8---12-8|-11-11-12--10--------------|--------------------------------------|
B|--9-10-12-----------------------|--------------10/12--10\8--|--9-10-9--------9/12-10--9-12---------|
G|--------------------------------|--------------------------8|---------11--9-----------------11/13-9|
D|--------------------------------|---------------------------|--------------------------------------|
A|--------------------------------|---------------------------|--------------------------------------|
E|--------------------------------|---------------------------|--------------------------------------|




E|-----------------9h12-12--|
B|------------9h12----------|
G|-------9h11---------------|
D|--9h11--------------------|
A|--------------------------|
E|--------------------------|



               C#m7   F#7              A6/B             E
Isn't she lovely           Life and love are the same
              C#m7  F#7               A6/B            E
Life is Aisha             The meaning of her name

Amaj7                          Ab7
Londie, it could have not been done
     C#m7                     F#7
Without you who conceived the one
                     A6/B    A/B  Aadd9  E
That's so very lovely made  from    love


Solo final (Variação do primeiro solo com lances de improviso)

Comentários 5

  • elfangreen elfangreen: Postado em 08/01/2013 21:29

    AWESOME

  • _pandada1d _pandada1d: Postado em 10/12/2012 10:25

    alguém ai sabe o ritimo da musica?

    • fehsena fehsena: Postado em 17/12/2012 12:11

      eu faço assim BC (batida) CBC (batida) pra cada acorde

  • neto53 neto53: Postado em 14/04/2012 13:35

    esse cara é demais!

  • tayandrade tayandrade: Postado em 01/02/2012 19:13

    neguinho canta demais +++++++++ Fã n: 1

Composição: Alistair Maudsley Score / Stevie Wonder
Esse não é o compositor? Avise-nos.
Contribuição: Adriana Correções: Nando , Bpmoliveira e mais 2 »
Exibir acordes »
publicidade
fechar