Cifra Club

Isn't She Lovely

Stevie Wonder

Cifra: Principal (violão e guitarra)
Selo Cifra Club: esta cifra foi revisada para atender aos critérios oficiais da nossa Equipe de Qualidade.
tom: E
[Intro] C#m7  F#7(11)  A/B  E

[Primeira parte]

           C#m7  F#7(11)
Isn't she lovely
           A/B   E
Isn't she wonderful
            C#m7    F#7(11)
Isn't she precious
               A/B   E
Less than one minute old

          A7M                                          
I never thought 
                   G#7(13-)  
Through love we'd be
       C#m7               F#7(11)
Making one as lovely as she
               A/B              
But isn't she lovely 
           E (frase)  G#7
Made from love

[TAB - Frase]

   E                                            G#7
E|-0--x-------------------------------------X---4------|
B|-0--x-------------------------------------X---4------|
G|-9--x----------------------6---9-9----9---X---5------|
D|-6--x--------------6---9------------------X---4------|
A|-7--x------7---9--------------------------X---6------|
E|-0--x-7--9--------------------------------X---4------|

[Segunda parte]

            C#m7  F#7(11)
Isn't she pretty
          A/B      E
Truly the angel's best
             C#m7  F#7(11)
Boy, I'm so happy
              A/B      E
We have been heaven  blessed

           A7M                  
I can't believe 
              G#7(13-)
What God has done
            C#m7              F#7(11)
Through us he's given life to one
               A/B              
But isn't she lovely 
           E  (frase)  G#7
Made from love

[TAB - Frase]

   E                                            G#7
E|-0--x-------------------------------------X---4------|
B|-0--x-------------------------------------X---4------|
G|-9--x----------------------6---9-9----9---X---5------|
D|-6--x--------------6---9------------------X---4------|
A|-7--x------7---9--------------------------X---6------|
E|-0--x-7--9--------------------------------X---4------|

[Solo] C#m7  F#7(11)  A/B  E
       C#m7  F#7(11)  A/B  E
       A7M  G#7(13-)  C#m7  F#7(11)  
       A/B  E  (frase)  G#7

[TAB - Frase]

   E                                            G#7
E|-0--x-------------------------------------X---4------|
B|-0--x-------------------------------------X---4------|
G|-9--x----------------------6---9-9----9---X---5------|
D|-6--x--------------6---9------------------X---4------|
A|-7--x------7---9--------------------------X---6------|
E|-0--x-7--9--------------------------------X---4------|

[Terceira parte]

           C#m7  F#7(11)
Isn't she lovely
              A/B      E
Life and love are the same
         C#m7  F#7(11)
Life is Aisha

            A/B      E
The meaning of her  name

            A7M                 
Londie, it could 
               G#7(13-)
Have not been done
         C#m7                 F#7(11)
Without you who conceived the one
                A/B 
That's so very lovely 
           E  (frase)  G#7
Made from love

[TAB - Frase]

   E                                            G#7
E|-0--x-------------------------------------X---4------|
B|-0--x-------------------------------------X---4------|
G|-9--x----------------------6---9-9----9---X---5------|
D|-6--x--------------6---9------------------X---4------|
A|-7--x------7---9--------------------------X---6------|
E|-0--x-7--9--------------------------------X---4------|

[Final] C#m7  F#7(11)  A/B  E
        C#m7  F#7(11)  A/B  E
        A7M  G#7(13-)  C#m7  F#7(11)  
        A/B  E  (frase)  G#7
        C#m7  F#7(11)  A/B  E
        C#m7  F#7(11)  A/B  E
        A7M  G#7(13-)  C#m7  F#7(11)  
        A/B  E (Frase final)

[TAB - Frase]

   E                                            G#7
E|-0--x-------------------------------------X---4------|
B|-0--x-------------------------------------X---4------|
G|-9--x----------------------6---9-9----9---X---5------|
D|-6--x--------------6---9------------------X---4------|
A|-7--x------7---9--------------------------X---6------|
E|-0--x-7--9--------------------------------X---4------|

[TAB - Frase Final]
   E                                     
E|-0--x------------------------------------------------|
B|-0--x------------------------------------------------|
G|-9--x----------------------6---9-9----9--------------|
D|-6--x--------------6---9-----------------------------|
A|-7--x------7---9-------------------------------------|
E|-0--x-7--9-------------------------------------------|

Outros vídeos desta música
    407.135 exibições
    • Simplificar cifra
      • ½ Tom
      • A
      • Bb
      • B
      • C
      • Db
      • D
      • Eb
      • E
      • F
      • F#
      • G
      • Ab
    • Adicionar à lista

    Afinação da cifra

    Afinador online

      0 comentários

      Ver todos os comentários

      Entre para o Cifra Club PRO

      Tenha acesso a benefícios exclusivos no App e no Site

      • Chega de anúncios

      • Badges exclusivas

      • Mais recursos no app do Afinador

      • Atendimento Prioritário

      • Aumente seu limite de lista

      • Ajude a produzir mais conteúdo

      Capítulos
      • Apresentação
      • Tocando a Música
      • Acordes da Música
      • Tocando Introdução e Primeira Parte
      • Ensinando Ritmo do Violão
      • Ensinando Frase
      • Dicas Repetições
      • Ensinando Variação da Frase
      • Encerramento

      Cifra Club Pro

      Aproveite o Cifra Club com benefícios exclusivos e sem anúncios
      Cifra Club Pro
      Aproveite o Cifra Club com benefícios exclusivos e sem anúncios
      OK