Cifra Club

Aprenda

Isn't She Lovely

Stevie Wonder

Cifra: Principal (violão e guitarra)
Tom: E
[Intro] C#m7(9)  F#7(13)  B7(4/9)  E

           C#m7(9)  F#7(13) 
Isn't she lovely
           B7(4/9)  E
Isn't she won___derful
            C#m7(9)  F#7(13) 
Isn't she precious
               B7(4/9)  E
Less than one minute    old

          A7M                      G#7(b9)
I never thought through love we'd be
       C#m7(9)            F#7(13)
Making one as lovely as she
               B7(4/9)          E
But isn't she lovely made from love

E|-----------------9h12-12-12-|
B|------------9h12------------|
G|-------9h11-----------------|
D|--9h11----------------------|
A|----------------------------|
E|----------------------------|

            C#m7(9)  F#7(13)
Isn't she pretty             
          B7(4/9)  E
Truly the angel's best
             C#m7(9)  F#7(13) 
Boy, I'm so happy             
              B7(4/9)  E
We have been heaven  blessed

           A7M                G#7(b9)
I can't believe what God has done
            C#m7(9)           F#7(13)
Through us he's given life to one
               B7(4/9)          E
But isn't she lovely made from love

E|-----------------9h12-12-12-|
B|------------9h12------------|
G|-------9h11-----------------|
D|--9h11----------------------|
A|----------------------------|
E|----------------------------|

[Solo] C#m7(9)  F#7(13)  B7(4/9)  E
       C#m7(9)  F#7(13)  B7(4/9)  E
       A7M  G#7(b9)  C#m7(9)
       F#7(13)  B7(4/9)  E

E|-----------------9h12-12-12-|
B|------------9h12------------|
G|-------9h11-----------------|
D|--9h11----------------------|
A|----------------------------|
E|----------------------------|

           C#m7(9)  F#7(13) 
Isn't she lovely            
          B7(4/9)      E
Life and love are the same
         C#m7(9)  F#7(13) 
Life is Aisha             
            B7(4/9)  E
The meaning of her  name

            A7M                 G#7(b9)
Londie, it could have not been done
         C#m7(9)              F#7(13)
Without you who conceived the one
                B7(4/9)          E 
That's so very lovely made from love

[Solo]

E|-----------------9h12-12-12-|
B|------------9h12------------|
G|-------9h11-----------------|
D|--9h11----------------------|
A|----------------------------|
E|----------------------------|

[Solo] C#m7(9)  F#7(13)  B7(4/9)  E
       C#m7(9)  F#7(13)  B7(4/9)  E
       A7M  G#7(b9)  C#m7(9)
       F#7(13)  B7(4/9)  E

E|-----------------9h12-12-12-|
B|------------9h12------------|
G|-------9h11-----------------|
D|--9h11----------------------|
A|----------------------------|
E|----------------------------|

[Solo] C#m7(9)  F#7(13)  B7(4/9)  E
       C#m7(9)  F#7(13)  B7(4/9)  E
       A7M  G#7(b9)  C#m7(9)
       F#7(13)  B7(4/9)  E

E|-----------------9h12-12-12-|
B|------------9h12------------|
G|-------9h11-----------------|
D|--9h11----------------------|
A|----------------------------|
E|----------------------------|
Composição de Stevie Wonder 213.943 exibições
    • ½ Tom
    • A
    • Bb
    • B
    • C
    • Db
    • D
    • Eb
    • E
    • F
    • F#
    • G
    • Ab
  • Adicionar à lista

    0 comentários

    Mostrar mais comentários

    Conseguiu tocar?

    23 Tocaram 5 Ainda não

    Grave um vídeo tocando Isn't She Lovely e mande pra gente!

    00:00 / 00:00
    outros vídeos desta música
    repetir qualidade Automático
    Outros vídeos desta música
    00:00 / 00:00
    Automático
    OK