Cifra Club

Isn't She Lovely

Stevie Wonder

Cifra: Principal
exibições 169.974
Tom: E
[Intro]  C#m7(9)  F#7(13)  B7(4/9)  E

           C#m7(9)  F#7(13)            B7(4/9)  E
Isn't she lovely,           isn't she won___derful
            C#m7(9)  F#7(13)                B7(4/9)  E
Isn't she precious           less than one minute    old

          A7M                      G#7(b13)
I never thought through love we'd be
       C#m7(9)            F#7(13)
Making one as lovely as she
               B7(4/9)          E
But isn't she lovely made from love

E|-----------------9h12-12--|
B|------------9h12----------|
G|-------9h11---------------|
D|--9h11--------------------|
A|--------------------------|
E|--------------------------|

            C#m7(9)  F#7(13)           B7(4/9)  E
Isn't she pretty             Truly the angel's best
             C#m7(9)  F#7(13)               B7(4/9)  E
Boy, I'm so happy             We have been heaven  blessed

           A7M                G#7(b13)
I can't believe what God has done
            C#m7(9)           F#7(13)
Through us he's given life to one
               B7(4/9)          E
But isn't she lovely made from love

E|-----------------9h12-12--|
B|------------9h12----------|
G|-------9h11---------------|
D|--9h11--------------------|
A|--------------------------|
E|--------------------------|

[Solo]  C#m7(9)  F#7(13)  B7(4/9)  E
        C#m7(9)  F#7(13)  B7(4/9)  E
        A7M  G#7(b13)  C#m7(9)  F#7(13)  B7(4/9)  E

E|--------------|--------------------------|--------------------------------|----------------------|
B|--9-10-9------|--9-9-9-10-9--------------|--9-12-9------------------------|--9-10-9--------------|
G|---------11--9|-------------11--9--------|---------11--11/13-9------9h11-9|---------11--9--9/11\9|
D|--------------|--------------------9h11p9|----------------------9h11------|----------------9/11\9|
A|--------------|--------------------------|--------------------------------|----------------------|
E|--------------|--------------------------|--------------------------------|----------------------|

E|----------9---12-9---12-8---12-8|-11-11-12--10--------------|--------------------------------------|
B|--9-10-12-----------------------|--------------10/12--10\8--|--9-10-9--------9/12-10--9-12---------|
G|--------------------------------|--------------------------8|---------11--9-----------------11/13-9|
D|--------------------------------|---------------------------|--------------------------------------|
A|--------------------------------|---------------------------|--------------------------------------|
E|--------------------------------|---------------------------|--------------------------------------|

E|-----------------9h12-12--|
B|------------9h12----------|
G|-------9h11---------------|
D|--9h11--------------------|
A|--------------------------|
E|--------------------------|

           C#m7(9)  F#7(13)           B7(4/9)      E
Isn't she lovely            Life and love are the same
         C#m7(9)  F#7(13)             B7(4/9)  E
Life is Aisha             The meaning of her  name

            A7M                 G#7(b13)
Londie, it could have not been done
         C#m7(9)              F#7(13)
Without you who conceived the one
                B7(4/9)          E
That's so very lovely made from love

[Solo]

E|---------------------------------------|
B|---------------------------------------|
G|-------------6-9-9---------------------|
D|---------6-9---------------------------|
A|-----7-9-------------------------------|
E|-7-9-----------------------------------|
Acordes para:

    0 comentários

      mostrar mais comentários

      Conseguiu tocar?

      17tocaram0ainda não

      Grave um vídeo tocando Isn't She Lovely e mande pra gente!

      00:00 / 00:00
      outros vídeos desta música
      repetirqualidadeautomática
      Outro vídeos desta música
        00:00 / 00:00
        automática
        OK