Cifra Club

Purple Rain

Prince

Cifra: Principal (violão e guitarra)
Selo Cifra Club: esta cifra foi revisada para atender aos critérios oficiais da nossa Equipe de Qualidade.
tom: Bb
[Intro] Bb9/D  Gm7(11)  F  Eb9

[Tab - Intro]

   Bb9/D              Gm7(11)
E|-1--------1---------------1---1-1---------|
B|-1--------1-1-1-1-1-1---1-1---1-1---------|
G|-3----------3-3-3-2-3---3-3---3-3---------|
D|-0----------0-0-0-0-0---0-----------------|
A|------------------------------------------|
E|--------------------3---------------------|
   ↓        ↑ ↓ ↑ ↓ ↑ ↓   ↑ ↓   ↓ ↑

             F             
E|---1-1-1----------------------------------|
B|-1-1-1-1----------1----1-1----------------|
G|-3-3-3-2---2------1h2--2-2----------------|
D|-0---------3----3-3----3-3----------------|
A|---------0-3----3-------------------------|
E|---------0-1----1-------------------------|
   ↑ ↓ ↑ ↓ ↑ ↓    ↑ ↓    ↓ ↑

             Eb9
E|----------------------6--------------6----|
B|-1-1-1-x--------------8--------------8----|
G|-2-2-2-x--------10-x-10-10-------10-------|
D|-3-3-3-x-x-------8-x-----8----8-----------|
A|---------x-6-------x-----6----------------|
E|---------x--------------------------------|
   ↑ ↓ ↑ ↓ ↑ ↓     ↑ ↓  ↑  ↓    ↑   ↓  ↑

[Primeira Parte]

[Tab - Primeira Parte]

   Bb9/D          Gm7(11)
E|-1--------------1-------1-----------------|
B|-1--------------1-----1-1-----1-1-1-------|
G|-3--------------3-----3-3-----3-3-3-------|
D|-0--------------0-----0-------0-0-0-------|
A|------------------------------------------|
E|----------------3-------------------------|
   ↓              ↓     ↑ ↓     ↑ ↓ ↑

   F              Eb9
E|------------------------6----6--6--6----6-|
B|-1-------------8--------8----8--8--8----8-|
G|-1h2--2-------10-------10---10-10-10---10-|
D|-3----3--------8--------------------------|
A|------3--------6-----6--------------------|
E|------1-----------------------------------|
   ↓    ↓         ↓    ↓  ↑    ↑  ↓  ↑    ↑

   Bb9/D          Gm7(11)
E|-1--------------1-------------------------|
B|-1--------------1-------------------------|
G|-3--------------3-------------------------|
D|-0--------------0-------------------------|
A|------------------------------------------|
E|----------------3-------------------------|
   ↓              ↓

   F              Bb2
E|-1--------------1-------------------------|
B|-1--------------1-------------------------|
G|-2--------------3-------------------------|
D|-3--------------3-------------------------|
A|-3--------------1-------------------------|
E|-1----------------------------------------|
   ↓              ↓

Bb9/D
      I never meant to cause you 
     Gm7(11)  F
Any sorrow
    
I never meant to cause you 
     Eb9  Bb9/D
Any pain

I only wanted one time
            Gm7(11)       
To see you laughing
  F
I only wanted to see 
                            Bb2
You laughing in the purple rain

[Refrão]

                     Eb2 
Purple rain, purple rain
                     Bb2  Gm7(11)
Purple rain, purple rain
                     F
Purple rain, purple rain

I only wanted to see 
                           Bb2
You bathing in the purple rain

[Segunda Parte]

[Tab - Segunda Parte]

   Bb2                   Gm7(11)
E|-1----1------1--------------1-------------|
B|-1----1------1---1-1-1-1----1-------1-1-1-|
G|-3----3------3---3-3-2-3----3-------3-3-2-|
D|-3---------------3-3-3-0----0-------0-0-0-|
A|-1---------1------------------------------|
E|-----------------------3----3-------------|
   ↓    ↓    ↓ ↑   ↑ ↓ ↑ ↓    ↓       ↑ ↓ ↑             

   F                      Eb2
E|------------------------6-------6---6-6-6-|
B|------1------1----1-1-1-6-------6---6-6-6-|
G|-2----1h2----2----2-2-2-8-------8---8-8-8-|
D|-3----3------3----3-3-3-8-----8-----------|
A|-3---------3------------6-----6-----------|
E|-1---------1------------------------------|
   ↓    ↓    ↓ ↑    ↑ ↓ ↑ ↓     ↓ ↑   ↑ ↓ ↑

   Bb2                   Gm7(11)
E|-1----1------1--------------1-------------|
B|-1----1------1---1-1-1-1----1-------1-1-1-|
G|-3----3------3---3-3-2-3----3-------3-3-2-|
D|-3---------------3-3-3-0----0-------0-0-0-|
A|-1---------1------------------------------|
E|-----------------------3----3-------------|
   ↓    ↓    ↓ ↑   ↑ ↓ ↑ ↓    ↓       ↑ ↓ ↑         

   F        Bb2
E|------------------------------------------|
B|------------------------------------------|
G|----------3-------------------------------|
D|-3--------3-------------------------------|
A|-3--------1-------------------------------|
E|-1----------------------------------------|

I never wanted to be 
                Bb2  Gm7(11)  F  
Your weekend lover

I only wanted to be 
               Eb9   Bb2
Some kind of friend

Baby, I could never steal you 
       Gm7(11)  F
From another

It's such a shame our friendship 
       Bb2
Had to end

[Refrão]

[Tab - Refrão]

   Eb2
E|------------------------------------------|
B|------------------------------------------|
G|-8~~--------------------------------------|
D|-8~~--------------------------------------|
A|-6~~--------------------------------------|
E|------------------------------------------|

   Bb2                            Gm7(11)
E|------------------------------------------|
B|------------------11---11----------11-----|
G|-3~~--------10h12---------12-10-12----12~-|
D|-3~~--------------------------------------|
A|-1~~--------------------------------------|
E|------------------------------------------|

   F
E|----------------------------8-------------|
B|----------------------10------------------|
G|------------------------------10-8-8~~/10-|
D|-3---------5/7-5-8/10----10---------------|
A|-3----------------------------------------|
E|-1----------------------------------------|

   F       Bb2
E|------------------------------------------|
B|------------------------------------------|
G|---------3--------------------------------|
D|-3-------3--------------------------------|
A|-3-------1--------------------------------|
E|-1----------------------------------------|

                     Eb2
Purple rain, purple rain
                     Bb2  Gm7(11) 
Purple rain, purple rain
                     F 
Purple rain, purple rain

I only wanted to see 
                           Bb2
You underneath the purple rain

[Terceira Parte]

Honey, I know, I know
                   Bb2    Gm7(11)  F
I know times are changing
 
It's time we all reach out 
               Eb2
For something new
                   Bb2
That means you too
                          Gm7(11)
You say you want a leader

But you can't seem to make up

Your mind
                     F
I think you better close it

And let me guide you 
               Bb2
To the purple rain

[Terceiro Refrão]

                     Eb2
Purple rain, purple rain
                     Bb2   
Purple rain, purple rain

If you know what 

I'm singing about up here
          Gm7(11)
Come on, raise your hands
                     F
Purple rain, purple rain

I only want to see you

I only want to see you
                   Bb2
In the purple rain

[Solo Final] Bb2  Gm7(11)  F  Eb2
             Bb2  Gm7(11)  F  Eb2
             Bb2  Gm7(11)  F  Eb2

             Bb2  Gm7(11)  F  Eb2
             Bb2  Gm7(11)  F  
             Eb5  D5  C  Bb5  G5  F5
             Eb5  D5  C  Bb5

[Tab - Solo Final]

E|-----------------------------------------------------|
B|-18--------------------------------------------------|
G|-17b19~~r----15~-------------------------------------|
D|-----------------------------------------------------|
A|-----------------------------------------------------|
E|-----------------------------------------------------|

E|--------15----15-----15---------15\------------------|
B|-18b20--------18b20--18b20-----b20\------------------|
G|-----------------------------------------------------|
D|-----------------------------------------------------|
A|-----------------------------------------------------|
E|-----------------------------------------------------|

E|-17---18---15----------------------------------------|
B|-----------18b20~--15h18p15----15--------------------|
G|----------------------------17----18p17-15-----------|
D|-------------------------------------------17-15-15~/|
A|-----------------------------------------------------|
E|-----------------------------------------------------|

E|-----------------------------------------------------|
B|---------18-----------18------18---------------------|
G|-17b19r--17b19--------17b19r--17b19~-----------------|
D|-----------------------------------------------------|
A|-----------------------------------------------------|
E|-----------------------------------------------------|

E|-----------------------------------------------------|
B|-18------18-----------18------18---------------------|
G|-17b19r--17b19--------17b19r--17b19------------------|
D|-----------------------------------------------------|
A|-----------------------------------------------------|
E|-----------------------------------------------------|

E|-----------------------------------------------------|
B|-18------18-----------18------18---------------------|
G|-17b19r--17b19--------17b19r--17b19------------------|
D|-----------------------------------------------------|
A|-----------------------------------------------------|
E|-----------------------------------------------------|

E|----18b20---18b20---18b20--b20-b20-b20r---18b20r-18~-|
B|-15--------------------------------------------------|
G|-----------------------------------------------------|
D|-----------------------------------------------------|
A|-----------------------------------------------------|
E|-----------------------------------------------------|

E|-18--15-17-18-15-17-18-15-17-18-17-15-17-18-17-15-17-|
B|-----------------------------------------------------|
G|-----------------------------------------------------|
D|-----------------------------------------------------|
A|-----------------------------------------------------|
E|-----------------------------------------------------|

E|-18-20b22r----------------20b22r---------------------|
B|------------18-18~---------------18-18~--------------|
G|-----------------------------------------------------|
D|-----------------------------------------------------|
A|-----------------------------------------------------|
E|-----------------------------------------------------|

E|-15b16--15-----15------------------------------------|
B|------------18----18p15------------------------------|
G|------------------------18p17p15---------------------|
D|---------------------------------17-15~--------------|
A|-----------------------------------------------------|
E|-----------------------------------------------------|

         P.M .     .  .  .
E|-----------------------------------------------------|
B|-----------------------------------------------------|
G|-----------------------------------------------------|
D|-8--6b-----------------------------------------------|
A|--------8--7--6--------------------------------------|
E|-----------------9--8--7-----------------------------|

                                             P.M .  .
E|-----------------------------------------------------|
B|-----------------------------------------------------|
G|-15~---14b----15~---14b---15~---14--15/17---------14-|
D|-----------------------------------------------17----|
A|--------------------------------------------17-------|
E|-----------------------------------------------------|

                                             P.M .  .
E|-----------------------------------------------------|
B|-----------------------------------------------------|
G|-15~---14b----15~---14b---15~---14--15/17---------14-|
D|-----------------------------------------------17----|
A|--------------------------------------------17-------|
E|-----------------------------------------------------|

E|-----------------------------------------------------|
B|-----------------------------------------------------|
G|-15~---14b----15~---14b----15~---14--15/17-----------|
D|-----------------------------------------------------|
A|-----------------------------------------------------|
E|-----------------------------------------------------|

E|-----------------------------------------------------|
B|-18-------18-------18-------18-------18--------------|
G|-17b19----17b19----17b19----17b19----17b19-----------|
D|-----------------------------------------------------|
A|-----------------------------------------------------|
E|-----------------------------------------------------|

                                             P.M .  .
E|-----------------------------------------------------|
B|-----------------------------------------------------|
G|-15~---14b----15~---14b---15~---14--15/17---------14-|
D|-----------------------------------------------17----|
A|--------------------------------------------17-------|
E|-----------------------------------------------------|

                                             P.M .  .
E|-----------------------------------------------------|
B|-----------------------------------------------------|
G|-15~---14b----15~---14b---15~---14--15/17---------14-|
D|-----------------------------------------------17----|
A|--------------------------------------------17-------|
E|-----------------------------------------------------|

E|-----------------------------------------------------|
B|-----------------------------------------------------|
G|-15~---14b----15~---14b----15~---14--15/17-----------|
D|-----------------------------------------------------|
A|-----------------------------------------------------|
E|-----------------------------------------------------|

E|-----------------------------------------------------|
B|-----------------------------------------------------|
G|-----------------------------------------------------|
D|-----------------------------------------------------|
A|-6---5---3---1---6-5-3-------------------------------|
E|-----------------------------------------------------|
Outros vídeos desta música
    176.400 exibições
    • Simplificar cifra
      • ½ Tom
      • A
      • Bb
      • B
      • C
      • Db
      • D
      • Eb
      • E
      • F
      • F#
      • G
      • Ab
    • Adicionar à lista

    Afinação da cifra

    Afinador online

      0 comentários

      Ver todos os comentários

      Entre para o Cifra Club PRO

      Tenha acesso a benefícios exclusivos no App e no Site

      • Chega de anúncios

      • Mais recursos no app do Afinador

      • Atendimento Prioritário

      • Aumente seu limite de lista

      • Ajude a produzir mais conteúdo

      Capítulos
      • Apresentação
      • Tocando a Introdução
      • Dicas da Introdução
      • Dicas das Configurações da Guitarra
      • Dicas Iniciais e da Dinâmica da Música
      • Tocando a Música
      • Ensinando o Solo da Música
      • Dicas Finais e Encerramento

      Cifra Club Pro

      Aproveite o Cifra Club com benefícios exclusivos e sem anúncios
      Cifra Club Pro
      Aproveite o Cifra Club com benefícios exclusivos e sem anúncios
      OK