Radio/Video

System Of a Down

 System Of a Down
Tom: A#
		
Intro 2x


E|------------------------------------------------------------------|
B|---11-----------13-----15--15--15-16p15-13--13--16p13-11--11--11--|
G|------------------------------------------------------------------|
D|------------------------------------------------------------------|
A|-10--10-10-10/12--12-13--13--13-----------12--12--------10--10----|
D|------------------------------------------------------------------|



E|----------------------------------------------------------------------------------|
B|---------11---------13-----15--15--15--16p15-14--14--14---------------------------|
G|----------------------------------------------------------------------------------|
D|----------------------------------------------------------------------------------|
A|-10-10-10--10-10-10/--12-13--13--13------------13--13----18--17/15--15/13--13/12--|
D|----------------------------------------------------------------------------------|


Refrão 2x

E|-------------------------------------------------------------------------------------------------------|
B|-------------------------------------------------------------------------------------------------------|
G|-------------------------------------------------------------------------------------------------------|
D|-5-/7-/8--8-8-8\7-777-777-777-777-777-7---5-/7-/8--8-8-8-12-11-11-11-11-11-12-11-11-11-11-11-----------|
A|-5-/7-/8--8-8-8\7-777-777-777-777-777-7---5-/7-/8--8-8-8-12-11-11-11-11-11-12-11-11-11-11-11-----------|
D|-5-/7-/8--8-8-8\7-777-777-777-777-777-7---5-/7-/8--8-8-8-12-11-11-11-11-11-12-11-11-11-11-11-----------|


Finaliza o Refrão


E|-----------------|
B|-----------------|
G|-----------------|
D|-13-12\10--8-7\5-|
A|-13-12\10--8-7\5-|
D|-13-12\10--8-7\5-|


Hey man! Look at me rockin out,
I'm on the radiooooooo,
Hey man! Look at me rockin out,
I'm on the videooooooo,
Hey man! Look at me rockin out,
I'm on the radiooooooo,


E|-----------------|
B|-----------------|
G|-----------------|
D|-13-12\10--8-7\5-|
A|-13-12\10--8-7\5-|
D|-13-12\10--8-7\5-|


Hey man! Look at me rockin out,
I'm on the videooooooo,

                       Dm
With Danny and Lisaaa....
                          Cm
They take me away away from...

                    Dm
The strangest place...

                     Cm
Sweet Danny and Lisa....

                      Dm
They take me away from.....AHHH.




E|-----------------------------------------------------------------------|
B|--------8/10-8-----------8/10-8-----------8/10-8-----------8/10-8------|
G|----8-7-------8-7--5-8-7--------8-7-7--8-7-------8-7-5-8-7--------8-7--|
D|-5-8----------------7-----------------5---------------7----------------|
A|-----------------------------------------------------------------------|
D|-----------------------------------------------------------------------|




REFRÃO 2x----somente a (Vocal/Guitar) Daron, o Serj sussurando com o solo da intro no fundo


"Hey man look at me rockin out I’m on the…
RADIOOOOO”  (volta todos instrumentos)

E|---|
B|---|
G|---|
D|-7-|
A|-7-|
D|-7-|

"Hey man look at me rockin out I’m on the…
VIDEOOOOO”  (volta todos instrumentos)
With Danny and Lisa

E|---|
B|---|
G|---|
D|-7-|
A|-7-|
D|-7-|

They take me away from,
The strangest place....
Sweet Danny and LisaAaAaAaAa


SOLO (2x)


E|---------------------------------------------------------------------------|
B|---------------------------------------------------------------------------|
G|-7-8-7~-7-8-7~-7-8/10-10-10-10-8-7-8-7-------------------------------------|
D|---------------------------------------10~-10-10-8-7b-7-7-8-10b-10-10-8-7b-|
A|---------------------------------------------------------------------------|
D|---------------------------------------------------------------------------|


continuando com a (Vocal/Guitar) Daron e Serj ("la la la la larala la la...”), aumentando o ritmo:


E|----------------------------------------|
B|----------------------------------------|
G|----------------------------------------|\
D|-5-5-5-8-5-5-5-5-8-5-5-5-5-8-5-5-5-5----| \
A|----------------------------------------|  \
D|----------------------------------------|   \
                                               } 2x


E|----------------------------------------|   /
B|----------------------------------------|  /
G|----------------------------------------| /
D|-7-7-7-10-7-7-7-7-10-7-7-7-7-10-7-7-7-7-|/
A|----------------------------------------|
D|----------------------------------------|



E|-----------------|
B|-----------------|
G|-----------------|
D|-7-8-7-8-7-8-7-8-|
A|-----------------|
D|-----------------|



E|-----------------------------------------------------------------------|
B|--------8/10-8-----------8/10-8-----------8/10-8-----------8/10-8------|
G|----8-7-------8-7--5-8-7--------8-7-7--8-7-------8-7-5-8-7--------8-7--|
D|-5-8----------------7-----------------5---------------7----------------|
A|-----------------------------------------------------------------------|
D|-----------------------------------------------------------------------|



E|-------------------------------------------------|
B|-15-15-15-15-16-16-16-16-18-18-18-18-16-16-15-15-|
G|-------------------------------------------------|
D|-------------------------------------------------|
A|-------------------------------------------------|
D|-------------------------------------------------|



E|----------------------------------------------------------------------------------------------|
B|-13-13-13-13-15-15-15-15-16-16-16-16-15-15-15-15-15-15-15-15-16-16-16-18-18-18-18-16-16-15-15-|
G|----------------------------------------------------------------------------------------------|
D|----------------------------------------------------------------------------------------------|
A|----------------------------------------------------------------------------------------------|
D|----------------------------------------------------------------------------------------------|



E|--------------------------------------------------|
B|-15-15-16-16-17-17-18-18-19-19-20-20-21-21-22-22b-|
G|--------------------------------------------------|
D|--------------------------------------------------|
A|--------------------------------------------------|
D|--------------------------------------------------|


Novamente o Refrão

Hey man! Look at me rockin out,
I'm on the radiooooooo,
Hey man! Look at me rockin out,
I'm on the videooooooo,
Hey man! Look at me rockin out,
I'm on the radiooooooo,


E|-------------------------------------------------------------------------------------------------------|
B|-------------------------------------------------------------------------------------------------------|
G|-------------------------------------------------------------------------------------------------------|
D|-5-/7-/8--8-8-8\7-777-777-777-777-777-7---5-/7-/8--8-8-8-12-11-11-11-11-11-12-11-11-11-11-11-----------|
A|-5-/7-/8--8-8-8\7-777-777-777-777-777-7---5-/7-/8--8-8-8-12-11-11-11-11-11-12-11-11-11-11-11-----------|
D|-5-/7-/8--8-8-8\7-777-777-777-777-777-7---5-/7-/8--8-8-8-12-11-11-11-11-11-12-11-11-11-11-11-----------|


Paletada Alternada
E|------|
B|------|
G|------|
D|------|  UUUuuuuhhhh...
A|------|
D|-17\0-|

Novamente o Refrão

Hey man! Look at me rockin out,
I'm on the radiooooooo,
Hey man! Look at me rockin out,
I'm on the videooooooo,
Hey man! Look at me rockin out,
I'm on the radiooooooo,


E|-------------------------------------------------------------------------------------------------------|
B|-------------------------------------------------------------------------------------------------------|
G|-------------------------------------------------------------------------------------------------------|
D|-5-/7-/8--8-8-8\7-777-777-777-777-777-7---5-/7-/8--8-8-8-12-11-11-11-11-11-12-11-11-11-11-11-----------|
A|-5-/7-/8--8-8-8\7-777-777-777-777-777-7---5-/7-/8--8-8-8-12-11-11-11-11-11-12-11-11-11-11-11-----------|
D|-5-/7-/8--8-8-8\7-777-777-777-777-777-7---5-/7-/8--8-8-8-12-11-11-11-11-11-12-11-11-11-11-11-----------|


Finaliza

Sweet Danny and LisaAaAaAaAaAaAaAaAaAaA


E|-----------------------------------------------------------|
B|-----------------------------------------------------------|
G|-----------------------------------------------------------|
D|-13-12\10-8-7\5-5-5-5-5-5-5-5/17-17-17-17-17-17-17-17-17\0-|
A|-13-12\10-8-7\5-5-5-5-5-5-5-5/17-17-17-17-17-17-17-17-17\0-|
D|-13-12\10-8-7\5-5-5-5-5-5-5-5/17-17-17-17-17-17-17-17-17\0-|
Texto Colunas
Alterar tom ½ tom ½ tom
afinação acordes na letra esconder tabs mais »

Comentários (18)

  • stephano.daniel.58 stephano.daniel.58: Postado em 13/04/2014 - 12:08

    Por favor façam uma video aula dessa música, to com muita dificuldade pra tocar ella, pf me ajudem!

  • CurtMansom1997 CurtMansom1997: Postado em 04/09/2013 12:12

    Radio/Video aula kkkk

  • alan10souza alan10souza: Postado em 08/04/2013 23:49

    essa musica e foda

  • brenolpzista brenolpzista: Postado em 24/02/2013 12:58

    Galera se vcs querem a video aula da musica vai em pedir cifras... SIMPLES

    • Eduardo Eduardo: Postado em 09/01/2014 17:56

      Só serve para cifras e não para video aulas

  • mr.wagner mr.wagner: Postado em 10/08/2012 17:06

    Ei galera se quiserem mais video aulas de system me add no face e entrem no meu grupo, tem que ficar mais democratico essa merda!

  • bioz bioz: Postado em 02/08/2012 18:11

    Videoo Aulaa aew musica muito boaa!

  • matheusroldao matheusroldao: Postado em 24/06/2012 17:25

    Ai galera não precisa de video-aula eu corrigi a tablatura dessa musica!!!

  • lakito lakito: Postado em 26/05/2012 17:23

    video aula cifra club pq nao ta tao facil assim e merece video aula quem concorda a um joinha

  • joaop79 joaop79: Postado em 06/05/2012 11:21

    kkkkkkkkkkkk Radio Video AULA, ai galera!!

Exibindo 10 de 18 comentários Mostrar mais ver todos »
Composição: Arthur Kent / L. "D.B." Crump
Esse não é o compositor? Avise-nos.
Contribuição: Olívia de Moraes Correções: Eduardo e mais 2 »
  1. Tudo Que Você Quiser - Luan Santana Manteve-se 5.417 exibições
  2. Lepo Lepo - Psirico Manteve-se 3.901 exibições
  3. Mozão - Lucas Lucco Manteve-se 3.749 exibições
  4. Logo Eu - Jorge e Mateus Manteve-se 3.341 exibições
  5. Gaveta - Fernando e Sorocaba Manteve-se 2.999 exibições
  6. Só Os Loucos Sabem - Charlie Brown Jr. Manteve-se 2.698 exibições
  7. Pra Você - Onze:20 Manteve-se 2.391 exibições
  8. Tempo Perdido - Legião Urbana Manteve-se 2.189 exibições
  9. Fui Fiel - Gusttavo Lima Manteve-se 2.019 exibições
  10. Na Linha do Tempo - Victor e Leo Manteve-se 1.925 exibições
  1. Jorge e Mateus- Manteve-se 20.025 exibições
  2. Legião Urbana- Manteve-se 17.810 exibições
  3. Luan Santana- Manteve-se 15.901 exibições
  4. Charlie Brown Jr.- Manteve-se 15.521 exibições
  5. Fernandinho- Manteve-se 13.364 exibições
  6. Thalles Roberto- Manteve-se 10.046 exibições
  7. Aline Barros- Manteve-se 9.582 exibições
  8. Católicas- Manteve-se 9.431 exibições
  9. Victor e Leo- Manteve-se 9.367 exibições
  10. Gusttavo Lima- Manteve-se 8.996 exibições
Exibir acordes »

Cifras e tabs

Fórum Cifra Club

Aprenda

Cifra Club News

Mais Serviços Cifra Club ID

Studio Sol

©1996 - 2014 Cifra Club · o primeiro, maior e mais acessado do Brasil · 329 mil músicas · 5.9 milhões pessoas cadastradas

publicidade
fechar