Radio/Video

System Of a Down

 System Of a Down
Tom: A#
		
Intro 2x:

E|----5-----7----9--9---9--10p9--7----7---7--8p7--5-----5----5------|
B|------------------------------------------------------------------|
G|------------------------------------------------------------------|
D|--4--44/6--6-7--6---6-------------6----6-----------4-----4--------|
A|------------------------------------------------------------------|
D|------------------------------------------------------------------|



E|----------5-----7--------9------9------9--10p9--7----7---7------------------------|
B|----------------------------------------------------------------------------------|
G|---------------------------------------------------------------------7---5--------|
D|--444------4-5-----5-7------7------7--------------6----6-------------------7--5--3|
A|----------------------------------------------------------------------------------|
D|----------------------------------------------------------------------------------|


Refrão 2x

E|-------------------------------------------------------------------------------------------------------|
B|-------------------------------------------------------------------------------------------------------|
G|-------------------------------------------------------------------------------------------------------|
D|-5-/7-/8--8-8-8\7-777-777-777-777-777-7---5-/7-/8--8-8-8-12-11-11-11-11-11-12-11-11-11-11-11-----------|
A|-5-/7-/8--8-8-8\7-777-777-777-777-777-7---5-/7-/8--8-8-8-12-11-11-11-11-11-12-11-11-11-11-11-----------|
D|-5-/7-/8--8-8-8\7-777-777-777-777-777-7---5-/7-/8--8-8-8-12-11-11-11-11-11-12-11-11-11-11-11-----------|


Finaliza o Refrão:

E|-----------------|
B|-----------------|
G|-----------------|
D|-13-12\10--8-7\5-|
A|-13-12\10--8-7\5-|
D|-13-12\10--8-7\5-|


Hey man! Look at me rockin out,
I'm on the radiooooooo,
Hey man! Look at me rockin out,
I'm on the videooooooo,
Hey man! Look at me rockin out,
I'm on the radiooooooo,


E|-----------------|
B|-----------------|
G|-----------------|
D|-13-12\10--8-7\5-|
A|-13-12\10--8-7\5-|
D|-13-12\10--8-7\5-|


Hey man! Look at me rockin out,
I'm on the videooooooo,

                       Dm
With Danny and Lisaaa....
                          Cm
They take me away away from...

                    Dm
The strangest place...

                     Cm
Sweet Danny and Lisa....

                      Dm
They take me away from.....AHHH.


E|-----------------------------------------------------------------------|
B|--------8/10-8-----------8/10-8-----------8/10-8-----------8/10-8------|
G|----8-7-------8-7--5-8-7--------8-7-7--8-7-------8-7-5-8-7--------8-7--|
D|-5-8----------------7-----------------5---------------7----------------|
A|-----------------------------------------------------------------------|
D|-----------------------------------------------------------------------|


(Refrão 2x)

"Hey man look at me rockin out I’m on the…
RADIOOOOO”  

E|---|
B|---|
G|---|
D|-7-|
A|-7-|
D|-7-|

"Hey man look at me rockin out I’m on the…
VIDEOOOOO”  
With Danny and Lisa

E|---|
B|---|
G|---|
D|-7-|
A|-7-|
D|-7-|

They take me away from,
The strangest place....
Sweet Danny and LisaAaAaAaAa

Solo 2x:

E|---------------------------------------------------------------------------|
B|---------------------------------------------------------------------------|
G|-7-8-7~-7-8-7~-7-8-10-10-1010-8-7-8-7-7/5~--5-5---3-2~-2-2-3-5~-5-5-3-2~---|
D|---------------------------------------------------------------------------|
A|---------------------------------------------------------------------------|
D|---------------------------------------------------------------------------|



E|----------------------------------------|
B|----------------------------------------|
G|----------------------------------------|
D|-5-5-5-8-5-5-5-5-8-5-5-5-5-8-5-5-5-5----| 
A|----------------------------------------|  
D|----------------------------------------|   
                                              (2x)


E|----------------------------------------|   
B|----------------------------------------|  
G|----------------------------------------| 
D|-7-7-7-10-7-7-7-7-10-7-7-7-7-10-7-7-7-7-|
A|----------------------------------------|
D|----------------------------------------|



E|-----------------|
B|-----------------|
G|-----------------|
D|-7-8-7-8-7-8-7-8-|
A|-----------------|
D|-----------------|



E|-----------------------------------------------------------------------|
B|--------8/10-8-----------8/10-8-----------8/10-8-----------8/10-8------|
G|----8-7-------8-7--5-8-7--------8-7-7--8-7-------8-7-5-8-7--------8-7--|
D|-5-8----------------7-----------------5---------------7----------------|
A|-----------------------------------------------------------------------|
D|-----------------------------------------------------------------------|



E|-------------------------------------------------|
B|-15-15-15-15-16-16-16-16-18-18-18-18-16-16-15-15-|
G|-------------------------------------------------|
D|-------------------------------------------------|
A|-------------------------------------------------|
D|-------------------------------------------------|



E|----------------------------------------------------------------------------------------------|
B|-13-13-13-13-15-15-15-15-16-16-16-16-15-15-15-15-15-15-15-15-16-16-16-18-18-18-18-16-16-15-15-|
G|----------------------------------------------------------------------------------------------|
D|----------------------------------------------------------------------------------------------|
A|----------------------------------------------------------------------------------------------|
D|----------------------------------------------------------------------------------------------|



E|--------------------------------------------------|
B|-15-15-16-16-17-17-18-18-19-19-20-20-21-21-22-22b-|
G|--------------------------------------------------|
D|--------------------------------------------------|
A|--------------------------------------------------|
D|--------------------------------------------------|


Hey man! Look at me rockin out,
I'm on the radiooooooo,
Hey man! Look at me rockin out,
I'm on the videooooooo,
Hey man! Look at me rockin out,
I'm on the radiooooooo,


E|-------------------------------------------------------------------------------------------------------|
B|-------------------------------------------------------------------------------------------------------|
G|-------------------------------------------------------------------------------------------------------|
D|-5-/7-/8--8-8-8\7-777-777-777-777-777-7---5-/7-/8--8-8-8-12-11-11-11-11-11-12-11-11-11-11-11-----------|
A|-5-/7-/8--8-8-8\7-777-777-777-777-777-7---5-/7-/8--8-8-8-12-11-11-11-11-11-12-11-11-11-11-11-----------|
D|-5-/7-/8--8-8-8\7-777-777-777-777-777-7---5-/7-/8--8-8-8-12-11-11-11-11-11-12-11-11-11-11-11-----------|


Paletada Alternada
E|------|
B|------|
G|------|
D|------|  UUUuuuuhhhh...
A|------|
D|-17\0-|

Novamente o Refrão

Hey man! Look at me rockin out,
I'm on the radiooooooo,
Hey man! Look at me rockin out,
I'm on the videooooooo,
Hey man! Look at me rockin out,
I'm on the radiooooooo,


E|-------------------------------------------------------------------------------------------------------|
B|-------------------------------------------------------------------------------------------------------|
G|-------------------------------------------------------------------------------------------------------|
D|-5-/7-/8--8-8-8\7-777-777-777-777-777-7---5-/7-/8--8-8-8-12-11-11-11-11-11-12-11-11-11-11-11-----------|
A|-5-/7-/8--8-8-8\7-777-777-777-777-777-7---5-/7-/8--8-8-8-12-11-11-11-11-11-12-11-11-11-11-11-----------|
D|-5-/7-/8--8-8-8\7-777-777-777-777-777-7---5-/7-/8--8-8-8-12-11-11-11-11-11-12-11-11-11-11-11-----------|


Finaliza

Sweet Danny and LisaAaAaAaAaAaAaAaAaAaA


E|-----------------------------------------------------------|
B|-----------------------------------------------------------|
G|-----------------------------------------------------------|
D|-13-12\10-8-7\5-5-5-5-5-5-5-5/17-17-17-17-17-17-17-17-17\0-|
A|-13-12\10-8-7\5-5-5-5-5-5-5-5/17-17-17-17-17-17-17-17-17\0-|
D|-13-12\10-8-7\5-5-5-5-5-5-5-5/17-17-17-17-17-17-17-17-17\0-|
Texto Colunas
Alterar tom ½ tom ½ tom
afinação acordes na letra esconder tabs mais »

Comentários 19

  • marcelo.vagner.360 marcelo.vagner.360: Postado em 17/09/2014 - 19:38

    o solo ta errado

  • stephano.daniel.58 stephano.daniel.58: Postado em 13/04/2014 12:09

    Por favor façam uma video aula dessa música, to com muita dificuldade pra tocar ella, pf me ajudem!

  • CurtMansom1997 CurtMansom1997: Postado em 04/09/2013 12:12

    Radio/Video aula kkkk

  • alan10souza alan10souza: Postado em 08/04/2013 23:49

    essa musica e foda

  • brenolpzista brenolpzista: Postado em 24/02/2013 12:58

    Galera se vcs querem a video aula da musica vai em pedir cifras... SIMPLES

    • Eduardo Eduardo: Postado em 09/01/2014 17:56

      Só serve para cifras e não para video aulas

  • mr.wagner mr.wagner: Postado em 10/08/2012 17:06

    Ei galera se quiserem mais video aulas de system me add no face e entrem no meu grupo, tem que ficar mais democratico essa merda!

  • bioz bioz: Postado em 02/08/2012 18:11

    Videoo Aulaa aew musica muito boaa!

  • matheusroldao matheusroldao: Postado em 24/06/2012 17:25

    Ai galera não precisa de video-aula eu corrigi a tablatura dessa musica!!!

  • lakito lakito: Postado em 26/05/2012 17:23

    video aula cifra club pq nao ta tao facil assim e merece video aula quem concorda a um joinha

Exibindo 10 de 19 comentários Mostrar mais ver todos »
Composição: Arthur Kent / L. "D.B." Crump
Esse não é o compositor? Avise-nos.
Contribuição: Olívia de Moraes Correções: João Victor , Eduardo e mais 4 »
  1. Até Você Voltar - Henrique e Juliano Manteve-se 101.891 exibições
  2. Domingo de Manhã - Marcos e Belutti Manteve-se 82.209 exibições
  3. Cuida Bem Dela - Henrique e Juliano Manteve-se 51.224 exibições
  4. Recaídas - Henrique e Juliano Manteve-se 44.388 exibições
  5. Pra Você - Onze:20 Manteve-se 42.283 exibições
  6. Só Os Loucos Sabem - Charlie Brown Jr. Manteve-se 33.937 exibições
  7. Logo Eu - Jorge e Mateus Manteve-se 31.753 exibições
  8. Raridade - Anderson Freire Manteve-se 31.629 exibições
  9. Pais e Filhos - Legião Urbana Manteve-se 31.256 exibições
  10. Aonde Quer Que Eu Vá - Os Paralamas do Sucesso Manteve-se 26.630 exibições
  1. Henrique e Juliano- Manteve-se 280.643 exibições
  2. Jorge e Mateus- Manteve-se 234.506 exibições
  3. Legião Urbana- Manteve-se 205.152 exibições
  4. Charlie Brown Jr.- Manteve-se 157.874 exibições
  5. Bruno e Marrone- Manteve-se 135.530 exibições
  6. Fernandinho- Manteve-se 122.146 exibições
  7. Luan Santana- Manteve-se 103.574 exibições
  8. Marcos e Belutti- Manteve-se 100.584 exibições
  9. Thalles Roberto- Manteve-se 94.429 exibições
  10. The Beatles- Manteve-se 92.591 exibições
Exibir acordes »

Cifras e tabs

Fórum Cifra Club

Aprenda

Cifra Club News

Mais Serviços Cifra Club ID

Studio Sol

©1996 - 2014 Cifra Club · o primeiro, maior e mais acessado do Brasil · 339 mil músicas · 6.3 milhões pessoas cadastradas

publicidade
fechar