System Of a Down

Radio/Video

147.220 exibições
Tom: A#
Intro 2x:


E|----5-----7----9--9---9--10p9--7----7---7--8p7--5-----5----5------|
B|------------------------------------------------------------------|
G|------------------------------------------------------------------|
D|--4--44/6--6-7--7---7-------------6----6-----------4-----4--------|
A|------------------------------------------------------------------|
D|------------------------------------------------------------------|



E|----------5-----7--------9------9------9--10p9--7----7---7------------------------|
B|----------------------------------------------------------------------------------|
G|---------------------------------------------------------------------7---5--------|
D|--444-------4-6-----6-7------7------7-------------6----6-------------------7--5--3|
A|----------------------------------------------------------------------------------|
D|----------------------------------------------------------------------------------|


Refrão 2x

E|---------------------------------------------------------------------------------------------|
B|---------------------------------------------------------------------------------------------|
G|---------------------------------------------------------------------------------------------|
D|-5-/7-/8--8-8-8\7-777-777-777-777-777-7---5-/7-/8--8-8-8-12-11-11-11-11-11-12-11-11-11-11-11-|
A|-5-/7-/8--8-8-8\7-777-777-777-777-777-7---5-/7-/8--8-8-8-12-11-11-11-11-11-12-11-11-11-11-11-|
D|-5-/7-/8--8-8-8\7-777-777-777-777-777-7---5-/7-/8--8-8-8-12-11-11-11-11-11-12-11-11-11-11-11-|


Finaliza o Refrão:

E|-----------------|
B|-----------------|
G|-----------------|
D|-13-12\10--8-7\5-|
A|-13-12\10--8-7\5-|
D|-13-12\10--8-7\5-|


Hey man! Look at me rockin out,
I'm on the radiooooooo,
Hey man! Look at me rockin out,
I'm on the videooooooo,
Hey man! Look at me rockin out,
I'm on the radiooooooo,


E|-----------------|
B|-----------------|
G|-----------------|
D|-13-12\10--8-7\5-|
A|-13-12\10--8-7\5-|
D|-13-12\10--8-7\5-|


Hey man! Look at me rockin out,
I'm on the videooooooo,

                       Dm
With Danny and Lisaaa....
                          Cm
They take me away away from...

                    Dm
The strangest place...

                     Cm
Sweet Danny and Lisa....

                      Dm
They take me away from.....AHHH.


E|-----------------------------------------------------------------------|
B|--------8/10-8-----------8/10-8-----------8/10-8-----------8/10-8------|
G|----8-7-------8-7--5-8-7--------8-7-7--8-7-------8-7-5-8-7--------8-7--|
D|-5-8----------------7-----------------5---------------7----------------|
A|-----------------------------------------------------------------------|
D|-----------------------------------------------------------------------|


(Refrão 2x)

"Hey man look at me rockin out I’m on the…
RADIOOOOO”  

E|---|
B|---|
G|---|
D|-7-|
A|-7-|
D|-7-|

"Hey man look at me rockin out I’m on the…
VIDEOOOOO”  
With Danny and Lisa

E|---|
B|---|
G|---|
D|-7-|
A|-7-|
D|-7-|

They take me away from,
The strangest place....
Sweet Danny and LisaAaAaAaAa

Solo 2x:

E|---------------------------------------------------------------------------|
B|---------------------------------------------------------------------------|
G|-7-8-7~-7-8-7~-7-8-10-10-1010-10-10-8-7-5-5~--5-5---3-2~--2-3-5b6r5~--5-3-2~---|
D|---------------------------------------------------------------------------|
A|---------------------------------------------------------------------------|
D|---------------------------------------------------------------------------|



E|----------------------------------------|
B|----------------------------------------|
G|----------------------------------------|
D|-5-5-5-8-5-5-5-5-8-5-5-5-5-8-5-5-5-5----| 
A|----------------------------------------|  
D|----------------------------------------|   
                                              (2x)


E|----------------------------------------|   
B|----------------------------------------|  
G|----------------------------------------| 
D|-7-7-7-10-7-7-7-7-10-7-7-7-7-10-7-7-7-7-|
A|----------------------------------------|
D|----------------------------------------|



E|-----------------|
B|-----------------|
G|-----------------|
D|-7-8-7-8-7-8-7-8-|
A|-----------------|
D|-----------------|



E|-----------------------------------------------------------------------|
B|--------8/10-8-----------8/10-8-----------8/10-8-----------8/10-8------|
G|----8-7-------8-7--5-8-7--------8-7-7--8-7-------8-7-5-8-7--------8-7--|
D|-5-8----------------7-----------------5---------------7----------------|
A|-----------------------------------------------------------------------|
D|-----------------------------------------------------------------------|



E|-------------------------------------------------|
B|-15-15-15-15-16-16-16-16-18-18-18-18-16-16-15-15-|
G|-------------------------------------------------|
D|-------------------------------------------------|
A|-------------------------------------------------|
D|-------------------------------------------------|



E|----------------------------------------------------------------------------------------------|
B|-13-13-13-13-15-15-15-15-16-16-16-16-15-15-15-15-15-15-15-15-16-16-16-18-18-18-18-16-16-15-15-|
G|----------------------------------------------------------------------------------------------|
D|----------------------------------------------------------------------------------------------|
A|----------------------------------------------------------------------------------------------|
D|----------------------------------------------------------------------------------------------|



E|--------------------------------------------------|
B|-15-15-16-16-17-17-18-18-19-19-20-20-21-21-22-22b-|
G|--------------------------------------------------|
D|--------------------------------------------------|
A|--------------------------------------------------|
D|--------------------------------------------------|


Hey man! Look at me rockin out,
I'm on the radiooooooo,
Hey man! Look at me rockin out,
I'm on the videooooooo,
Hey man! Look at me rockin out,
I'm on the radiooooooo,


E|---------------------------------------------------------------------------------------------|
B|---------------------------------------------------------------------------------------------|
G|---------------------------------------------------------------------------------------------|
D|-5-/7-/8--8-8-8\7-777-777-777-777-777-7---5-/7-/8--8-8-8-12-11-11-11-11-11-12-11-11-11-11-11-|
A|-5-/7-/8--8-8-8\7-777-777-777-777-777-7---5-/7-/8--8-8-8-12-11-11-11-11-11-12-11-11-11-11-11-|
D|-5-/7-/8--8-8-8\7-777-777-777-777-777-7---5-/7-/8--8-8-8-12-11-11-11-11-11-12-11-11-11-11-11-|


Paletada Alternada
E|------|
B|------|
G|------|
D|------|  UUUuuuuhhhh...
A|------|
D|-17\0-|

Novamente o Refrão

Hey man! Look at me rockin out,
I'm on the radiooooooo,
Hey man! Look at me rockin out,
I'm on the videooooooo,
Hey man! Look at me rockin out,
I'm on the radiooooooo,


E|-------------------------------------------------------------------------------------------------------|
B|-------------------------------------------------------------------------------------------------------|
G|-------------------------------------------------------------------------------------------------------|
D|-5-/7-/8--8-8-8\7-777-777-777-777-777-7---5-/7-/8--8-8-8-12-11-11-11-11-11-12-11-11-11-11-11-----------|
A|-5-/7-/8--8-8-8\7-777-777-777-777-777-7---5-/7-/8--8-8-8-12-11-11-11-11-11-12-11-11-11-11-11-----------|
D|-5-/7-/8--8-8-8\7-777-777-777-777-777-7---5-/7-/8--8-8-8-12-11-11-11-11-11-12-11-11-11-11-11-----------|


Finaliza

Sweet Danny and LisaAaAaAaAaAaAaAaAaAaA


E|-----------------------------------------------------------|
B|-----------------------------------------------------------|
G|-----------------------------------------------------------|
D|-13-12\10-8-7\5-5-5-5-5-5-5-5/17-17-17-17-17-17-17-17-17\0-|
A|-13-12\10-8-7\5-5-5-5-5-5-5-5/17-17-17-17-17-17-17-17-17\0-|
D|-13-12\10-8-7\5-5-5-5-5-5-5-5/17-17-17-17-17-17-17-17-17\0-|
    Composição: Daron MalakianColaboração e revisão:
    • João Victor
    • Eduardo
    • matheusroldao
    • Olívia de Moraes
    • fabio10000
    • +1

    Comentários 20

    • biel.best biel.best: Postado em 06/02/2015 14:32

      Faz uma Radio/Video aula, mesmo sendo ñ sendo dificil seria mt mais facil com video aula

    • marcelo.vagner.360 marcelo.vagner.360: Postado em 17/09/2014 19:47

      o solo ta errado

    • stephano.daniel.58 stephano.daniel.58: Postado em 13/04/2014 12:09

      Por favor façam uma video aula dessa música, to com muita dificuldade pra tocar ella, pf me ajudem!

    • CurtMansom1997 CurtMansom1997: Postado em 04/09/2013 12:12

      Radio/Video aula kkkk

    • alan10souza alan10souza: Postado em 08/04/2013 23:49

      essa musica e foda

    • brenolpzista brenolpzista: Postado em 24/02/2013 12:58

      Galera se vcs querem a video aula da musica vai em pedir cifras... SIMPLES

      • Eduardo Eduardo: Postado em 09/01/2014 17:56

        Só serve para cifras e não para video aulas

    • mr.wagner mr.wagner: Postado em 10/08/2012 17:06

      Ei galera se quiserem mais video aulas de system me add no face e entrem no meu grupo, tem que ficar mais democratico essa merda!

    • bioz bioz: Postado em 02/08/2012 18:11

      Videoo Aulaa aew musica muito boaa!

    • matheusroldao matheusroldao: Postado em 24/06/2012 17:25

      Ai galera não precisa de video-aula eu corrigi a tablatura dessa musica!!!

    Exibindo 10 de 20 comentários Mostrar mais ver todos »

    conseguiu tocar?

    • erick
    • Lucas
    • murilocmatheus
    • stephano.daniel.58
    • kaamedes
    • Ti@goGK
    • Eduardo
    • •••
    0:00 / 0:00

    Capítulos

      2 versões de baixoexibiçõescontribuição e correção
      1 versão de Guitar Proformatodownloadscontribuição
      play/pausefechar subir/descer velocidade
      6ª corda E5ª corda A4ª corda D3ª corda G2ª corda B1ª corda E
        Exibir acordes
        Feedback
        publicidad
        fechar
        ok