When It Started

The Strokes

 The Strokes
Tom: G
		
Intro:

 Guitar 1

e|---8------8----------8-----------8--|
B|---8------8----------8-----------8--|
G|---9------9----------9-----------9--|
D|--10-----10---------10----------10--|
A|--10-----10---------10----------10--|
E|------------------------------------|



Verse:

 Guitar 1

e|-----------------------------------------------------------------------
B|---8--8--8--8--8--8---10---10-10--10----8--8--8--8---10----8--8--8--8--
G|---9--9--9--9--9--9----9----9--9---9----9--9--9--9----9----9--9--9--9--
D|--10-10-10-10-10-10---10---10-10--10---10-10-10-10---10---10-10-10-10--
A|-----------------------------------------------------------------------
E|-----------------------------------------------------------------------




e|-----------------------------------------------------------------------
B|---8--8--8--8--8--8---10---10-10--10----8--8--8--8---10----8--8--8--8--
G|---9--9--9--9--9--9----9----9--9---9----9--9--9--9----9----9--9--9--9--
D|--10-10-10-10-10-10---10---10-10--10---10-10-10-10---10---10-10-10-10--
A|-----------------------------------------------------------------------
E|-----------------------------------------------------------------------




e|-----------------------------------------------------------------------------
B|---10-10-10-10-10-10----8---10----8---8----10-10-10-10----8--10---8---8---8--
G|----7--7--7--7--7--7----7----7----7---7-----7--7--7--7----7---7---7---7---7--
D|---10-10-10-10-10-10---10---10---10--10----10-10-10-10---10--10--10--10--10--
A|-----------------------------------------------------------------------------
E|-----------------------------------------------------------------------------




e|---8------8----------8-----------8--|
B|---8------8----------8-----------8--|
G|---9------9----------9-----------9--| x3  *The 3rd time around, don't play the B# chord at the end.
D|--10-----10---------10----------10--|	     Instead, go right to the Chorus.
A|--10-----10---------10----------10--|
E|------------------------------------|




 Guitar 2   *When Guitar 1 plays the B# as an intro, Guitar 2 is silent.

e|--------------------------------------------------------------------
B|--------------------------------------------------------------------
G|---5-5-5-5-5-5-5-5-5-5-5-5-5-5-5-5-5-5-5-5-5-5-5-5-5-5-5-5-5-5-5-5--
D|---5-5-5-5-5-5-5-5-5-5-5-5-5-5-5-5-5-5-5-5-5-5-5-5-5-5-5-5-5-5-5-5--
A|---3-3-3-3-3-3-3-3-3-3-3-3-3-3-3-3-3-3-3-3-3-3-3-3-3-3-3-3-3-3-3-3--
E|--------------------------------------------------------------------
   *Heavy palm muting throughout*   (Chord strummed 32 times)




e|------------------------------------|
B|------------------------------------|
G|---2-2-2-2-2-2-2-2-2-2-2-2-2-2-2-2--|
D|---3-3-3-3-3-3-3-3-3-3-3-3-3-3-3-3--|  x3
A|---3-3-3-3-3-3-3-3-3-3-3-3-3-3-3-3--|
E|---1-1-1-1-1-1-1-1-1-1-1-1-1-1-1-1--|
   *Heavy palm muting here as well* (Chord strummed 16 times)



Chorus:

 Guitar 1

e|------------------------------------------------------------------
B|------------------------------------------------------------------
G|------------------------------------------------------------------
D|---7-7-7-7-7-7-7-7-9-9-9-9-9-9-9-9-7-7-7-7-7-7-7-7-9-9-9-9-9-9-9-9
A|---8-8-8-8-8-8-8-8-8-8-8-8-8-8-8-8-8-8-8-8-8-8-8-8-8-8-8-8-8-8-8-8
E|------------------------------------------------------------------



  ------------------------------------------------------------------|   
  ------------------------------------------------------------------|   
  ------------------------------------------------------------------|   
  -7-7-7-7-7-7-7-7-7-7-7-7-7-7-7-7-7-7-7-7-7-7-7-7-7-7-7-7-7-7-7-7--| x2
  -8-8-8-8-8-8-8-8-7-7-7-7-7-7-7-7-8-8-8-8-8-8-8-8-7-7-7-7-7-7-7-7--|   
  ------------------------------------------------------------------|   


 Guitar 2

e|------------------------------------------------------------------
B|------------------------------------------------------------------
G|---2-2-2-2-2-2-2-2-4-4-4-4-4-4-4-4-2-2-2-2-2-2-2-2-4-4-4-4-4-4-4-4
D|---3-3-3-3-3-3-3-3-3-3-3-3-3-3-3-3-3-3-3-3-3-3-3-3-3-3-3-3-3-3-3-3
A|------------------------------------------------------------------
E|------------------------------------------------------------------

  

  ------------------------------------------------------------------|   
  ------------------------------------------------------------------|   
  -2-2-2-2-2-2-2-2-2-2-2-2-2-2-2-2-2-2-2-2-2-2-2-2-2-2-2-2-2-2-2-2--|   
  -3-3-3-3-3-3-3-3-2-2-2-2-2-2-2-2-3-3-3-3-3-3-3-3-2-2-2-2-2-2-2-2--| x2
  ------------------------------------------------------------------|   
  ------------------------------------------------------------------|   



Solo:
 
 Guitar 2

e|---------------------------------------------------------------------|
B|---------------------------------------------------------------------| Play this twice, 
G|---2-2-2-2-2-2-2-2-2-2-2-2-2-2-2-2--2-2-2-2-2-2-2-2-2-2-2-2-2-2-2-2--| then Guitar 1 comes 
D|---3-3-3-3-3-3-3-3-3-3-3-3-3-3-3-3--0-0-0-0-0-0-0-0-0-0-0-0-0-0-0-0--| in with solo.
A|---0-0-0-0-0-0-0-0-0-0-0-0-0-0-0-0--0-0-0-0-0-0-0-0-0-0-0-0-0-0-0-0--| Continue playing this  
E|------------------------------------3-3-3-3-3-3-3-3-3-3-3-3-3-3-3-3--| throughout solo.

    *Light palm muting*


 Guitar 1

e|---13--12--10----7--5--3----17--15--13/-20\--13--12--10----8--
B|----x---x---x----x--x--x-----x---x--x----x----x---x---x----x--
G|---14--12--10----7--5--4----17--16--14/-21-\-14--12--10----9--
D|--------------------------------------------------------------
A|--------------------------------------------------------------
E|--------------------------------------------------------------





e|-13-----12-----10---7----5----3---12--10---8----7----5----3---17----15\13--13--|
B|--x------x------x---x----x----x----x---x---x----x----x----x----x-----x--x---x--|
G|-14--12-12--10-10---7--5-5--4-4---12--10---9----7--5-5--4-4---17-16-16\14--14--|
D|-------------------------------------------------------------------------------|
A|-------------------------------------------------------------------------------|
E|-------------------------------------------------------------------------------|



                                            
Verse 2:

 Guitar 1


e|-----------------------------------------------------------------------
B|---8--8--8--8--8--8---10---10-10--10----8--8--8--8---10----8--8--8--8--
G|---9--9--9--9--9--9----9----9--9---9----9--9--9--9----9----9--9--9--9--
D|--10-10-10-10-10-10---10---10-10--10---10-10-10-10---10---10-10-10-10--
A|-----------------------------------------------------------------------
E|-----------------------------------------------------------------------




e|-----------------------------------------------------------------------
B|---8--8--8--8--8--8---10---10-10--10----8--8--8--8---10----8--8--8--8--
G|---9--9--9--9--9--9----9----9--9---9----9--9--9--9----9----9--9--9--9--
D|--10-10-10-10-10-10---10---10-10--10---10-10-10-10---10---10-10-10-10--
A|-----------------------------------------------------------------------
E|-----------------------------------------------------------------------




e|-----------------------------------------------------------------------------
B|---10-10-10-10-10-10----8---10----8---8----10-10-10-10----8--10---8---8---8--
G|----7--7--7--7--7--7----7----7----7---7-----7--7--7--7----7---7---7---7---7--
D|---10-10-10-10-10-10---10---10---10--10----10-10-10-10---10--10--10--10--10--
A|-----------------------------------------------------------------------------
E|-----------------------------------------------------------------------------




e|---8------8----------8-----------8--|
B|---8------8----------8-----------8--|
G|---9------9----------9-----------9--| x2  Same thing applies
D|--10-----10---------10----------10--|	     
A|--10-----10---------10----------10--|
E|------------------------------------|




 Guitar 2

e|--------------------------------------------------------------------
B|--------------------------------------------------------------------
G|---5-5-5-5-5-5-5-5-5-5-5-5-5-5-5-5-5-5-5-5-5-5-5-5-5-5-5-5-5-5-5-5--
D|---5-5-5-5-5-5-5-5-5-5-5-5-5-5-5-5-5-5-5-5-5-5-5-5-5-5-5-5-5-5-5-5--
A|---3-3-3-3-3-3-3-3-3-3-3-3-3-3-3-3-3-3-3-3-3-3-3-3-3-3-3-3-3-3-3-3--
E|--------------------------------------------------------------------
   *Heavy palm muting throughout*   (Chord strummed 32 times)




e|------------------------------------|
B|------------------------------------|
G|---2-2-2-2-2-2-2-2-2-2-2-2-2-2-2-2--|
D|---3-3-3-3-3-3-3-3-3-3-3-3-3-3-3-3--|  x2
A|---3-3-3-3-3-3-3-3-3-3-3-3-3-3-3-3--|
E|---1-1-1-1-1-1-1-1-1-1-1-1-1-1-1-1--|
   *Heavy palm muting here as well* (Chord strummed 16 times)




Chorus 2:

 Guitar 1

e|------------------------------------------------------------------
B|------------------------------------------------------------------
G|------------------------------------------------------------------
D|---7-7-7-7-7-7-7-7-9-9-9-9-9-9-9-9-7-7-7-7-7-7-7-7-9-9-9-9-9-9-9-9
A|---8-8-8-8-8-8-8-8-8-8-8-8-8-8-8-8-8-8-8-8-8-8-8-8-8-8-8-8-8-8-8-8
E|------------------------------------------------------------------



  ------------------------------------------------------------------|   
  ------------------------------------------------------------------|   
  ------------------------------------------------------------------|   
  -7-7-7-7-7-7-7-7-7-7-7-7-7-7-7-7-7-7-7-7-7-7-7-7-7-7-7-7-7-7-7-7--| x2
  -8-8-8-8-8-8-8-8-7-7-7-7-7-7-7-7-8-8-8-8-8-8-8-8-7-7-7-7-7-7-7-7--|   
  ------------------------------------------------------------------|  

  
   
 Guitar 2

e|------------------------------------------------------------------
B|------------------------------------------------------------------
G|---2-2-2-2-2-2-2-2-4-4-4-4-4-4-4-4-2-2-2-2-2-2-2-2-4-4-4-4-4-4-4-4
D|---3-3-3-3-3-3-3-3-3-3-3-3-3-3-3-3-3-3-3-3-3-3-3-3-3-3-3-3-3-3-3-3
A|------------------------------------------------------------------
E|------------------------------------------------------------------



  ------------------------------------------------------------------|   
  ------------------------------------------------------------------|   
  -2-2-2-2-2-2-2-2-2-2-2-2-2-2-2-2-2-2-2-2-2-2-2-2-2-2-2-2-2-2-2-2--|   
  -3-3-3-3-3-3-3-3-2-2-2-2-2-2-2-2-3-3-3-3-3-3-3-3-2-2-2-2-2-2-2-2--| x2
  ------------------------------------------------------------------|   
  ------------------------------------------------------------------| 

    

| LETRA DA MÚSICA |

Won't decide, but he won't debate
Said, "Thanks my friend," though it was too late
Oh why, oh why
I don't know

So you think things move pretty fast down here
Well just wait my dear 'til you look up there
Oh maybe someday you'll know

Had his second kid, was an early night
Got to be well dressed 'cause he hates to fly
Oh loves his job, takes it home

Anything they wanted
They could have it, have it
Didn't even notice
I don't mind it, mind it

Won't decide, but he won't debate
Said, "Thanks my friend, thought that we was dead."
Oh why, oh why
I don't know

Think things move pretty fast down here
But just wait my dear 'til we get up there
Oh maybe someday they'll know

Come on tell me does she
wander, roam when he comes
or does he just know how to leave
when i gets cold
I dont care, I dont care 
cause its free

Comentários 0

Composição: Jack Blades / Juan Magan / Julian Casablancas
Esse não é o compositor? Avise-nos.
Contribuição: beto1
Consegui tocarAinda não conseguiram tocar essa música. Seja o primeiro!
    Não consegui tocar
    Exibir acordes »
    publicidade
    fechar