Listen To Your Heart

TNT

 TNT
Tom: A
		
Album  : Tell No Tales
Tuning : A half a step lower

Intro (Palm mute on the 5th string)

Eb|-----------------------------------------------------------------------|
Bb|------------------------------------7---7---9-9---9--10--10-10---10----|
Gb|----7---7-----9-----9-----7---7-6---7---7---9-9---9---9---9--9----9----|
Db|----4---4-----6-----7-----7---7-7--------------------------------------|
Ab|-x\-------0-0---0-0---0-0---------0---0---0-----0---0---0-----------xx-|
Eb|-----------------------------------------------------------------------|



|-------------------------------------------------|
|---------------------------------7---7---9-9-----|
|-7---7-----9-----9-----7---7-6---7---7---9-9-----|
|-4---4-----6-----7-----7---7-7-------------------|
|-------0-0---0-0---0-0---------0---0---0---------|
|-------------------------------------------------|

 (|->      harmony part     pm pm pm pm pm pm pm pm pm pm pm pm pm pm pm pm     palm mute   PalmMute  Palm Mute      Hammer-on and pull-off                     Palm mute                 
1.584 exibições

Comentários 0

Consegui tocarAinda não conseguiram tocar essa música. Seja o primeiro!
    Não consegui tocar
    Exibir acordes »
    publicidade
    fechar