Tom: A#
		
(intro) Cm  G# D# Bb


B|-6h8-----6-6h8-----6h8------6-6--------|
G|-----5-8-------5-8-----5-8------8-7-5--|


Am	     F	      Dm	  Em7
Deus se despiu de sua glória do céu
Am	F	Dm	     E7
Esvaziou-se e humilde desceu
      F	                 G
Como servo se fez entre nós
      Am              G/B
E humilhando-se, obedeceu
     G#	                Bb	              F
Mudo como um cordeiro, Leão que rugiu e venceu
Cm Bb Cm      G#	    D#	            Bb
 A do nai, Yeshua, Jesus Cristo Messias, Leão de Judá
    Cm	   G#       D#	               Bb
Yeshua, Adonai, Assentado em glória a destra do pai
Cm Bb Cm     G#           D#	             Bb	      F
A  do nai, Yeshua, o seu trono é eterno e o seu reino não passará

(riff guitarra e contra - baixo)

E|----------------------------------------------------------------|
B|----------------------------------------------------------------|
G|---------------3-3-3-----------------------------3-3-3----------|
D|----------------------6-5-3----3-------------------------3-3-3--|
A|-3-3-3--6-6-6----------------6-----3-3-3--6-6-6----------1-1-1--|
E|----------------------------------------------------------------|


(continuação do riff)

E|----------------------------------------------------------------|
B|----------------------------------------------------------------|
G|---------------3-3-3------------------------------3/2-----------|
D|----------------------6-5-3----3----------------------3~--------|
A|-3-3-3--6-6-6----------------6-----3-3-3--6-6-6-----------------|
E|----------------------------------------------------------------|



E|----------------------------------------------------------------|
B|----------------------------------------------------------------|
G|---------------3-3-3-----------------------------3-3-3----------|
D|----------------------6-5-3----3-------------------------3-3-3--|
A|-3-3-3--6-6-6----------------6-----3-3-3--6-6-6----------1-1-1--|
E|----------------------------------------------------------------|



E|----------------------------------------------------------------|
B|----------------------------------------------------------------|
G|---------------3-3-3------------------------------3/2-----------|
D|----------------------6-5-3----3----------------------3~---5----|
A|-3-3-3--6-6-6----------------6-----3-3-3--6-6-6------------3----|
E|----------------------------------------------------------------|


( na tablatura 1 significa Bb5 e 3 significa C5 )

( Cm G# D# Bb )
( Cm D# Bb F )

( Cm D# G# Bb5 D#5 F5 )

      C5 D#5 G5 G#5          D#                Bb
Adonai        Yeshua, Jesus Cristo Messias, Leão de Judá
G#  Bb  F
ôôôôôôôôôôô
G#  Bb
ôôôôôôôôÔ

(final)
C5 Bb5 C5 Cm
Adonai, Yeshuaaaaa
41.109 exibições

Comentários 1

  • camilin camilin: Postado em 10/11/2012 17:31

    introdução é até facil!!

Composição: Ronald Fonseca e Luiz Arcanjo
Esse não é o compositor? Avise-nos.
Contribuição: Nil Correções: mvsn , jefferson alves (IMW do Viegas) e mais 2 »
Exibir acordes »
publicidade
fechar