Lado Errado

Victor e Leo

 Victor e Leo
Tom: D(acordes na forma do tom C)
Capotraste na 2ª casa		

 Intro: C  Am
E|-------0---------0---------0---------0----|
B|-----1---1-----1---1-----1---1-----1---1--|
G|------------------------------------------| (2x)
D|---2---------2---------2---------2--------|
A|-3---------3---------0---------0----------|
E|------------------------------------------|



E|-------3---------3---------3---------3---------1---------1---------3---------3----|
B|-----1---1-----3---3-----1---1-----1---1-----3---3-----1---1-----0---0-----0---0--|
G|-------------------------------------------2---------2----------------------------| (4x)
D|---2---------0---------2---------2-------0---------0------------------------------|
A|-3---------2---------0---------0-------------------------------2---------2--------|
E|-------------------------------------------------------------3---------3----------|



E|-------0---------0---------1----|-------0---------0---------1----|---1---|
B|-----1---1-----1---1-----1---1--|-----1---1-----1---1-----1---1--|---1---|
G|--------------------------------|--------------------------------|---2---|
D|---2---------2------------------|---2---------2------------------|---3---|
A|-0---------0-----------3--------|-0---------0-----------3--------|---3---|
E|---------------------1----------|---------------------1----------|---1---|


C           G/B
Era como se estivesse
Am     Dm            G
Pra começar um novo amor
C          G/B        Am
Eu do lado errado sem saber
      Dm           G
Que em vão tudo acabou
C          G/B        Am
Como posso agora te culpar
     Dm                  G
Fui eu quem quis te encontrar
C            G/B          Am
Me joguei no escuro sem pensar
Dm               G
Errei deixei me levar
Am               F
Agora mesmo a chorar
Am               F
Eu tenho que encontrar
          F                G
Um jeito de fazer você me amar
F             G             C
   Eu simplesmente não sei mais
F              G             C
   Gostar de alguém sem ser você
F            G         C
   Você roubou a minha paz
   G/B    Am
Vem cá meu bem
    G     F
Vem cá dizer
         G         C
Quem poderá me devolver

( C Am ) (3x)

( C )

Am               F
Agora mesmo a chorar
Am               F
Eu tenho que encontrar
          F                G
Um jeito de fazer você me amar
F             G             C
   Eu simplesmente não sei mais
F              G             C
   Gostar de alguém sem ser você
F            G         C
   Você roubou a minha paz
   G/B    Am
Vem cá meu bem
    G     F
Vem cá dizer
         G         C
Quem poderá me devolver
F             G             C
   Eu simplesmente não sei mais
F              G             C
   Gostar de alguém sem ser você
F            G         C
   Você roubou a minha paz
   G/B    Am
Vem cá meu bem
     G     F
Vem cá dizer
         G          C
Quem poderá me devolver

Solo: C  Am (3x)

       C
E|-17/19--17--15-15-------------------10-10--9-9--7--------------10-10/12--14-|
B|------------------17-17--15-15~-----------------------10-—8h10--------------|
G|----------------------------------------------------------------------------|
D|----------------------------------------------------------------------------|
A|----------------------------------------------------------------------------|
E|----------------------------------------------------------------------------|



E|-----------------8-8--10-10b12r10--8---------------|
B|--10/12--12----------------------------10/12--10---|
G|---------------------------------------------------|
D|---------------------------------------------------|
A|---------------------------------------------------|
E|---------------------------------------------------|

Comentários 4

  • Renan Renan: Postado em 09/03/2011 21:05

    valeu a galera que postou essa cifra, agora eu consigo tocar!!!

  • william-violao-smash william-violao-smash: Postado em 06/02/2011 14:21

    Vlw ae galera...

  • Paulo Ricardo Paulo Ricardo: Postado em 06/02/2011 12:32

    BOM D++

  • ju ju: Postado em 19/12/2010 11:46

    muito bom

Composição: Victor Chaves
Esse não é o compositor? Avise-nos.
Contribuição: williamviolao Correções: dennys_goulart , Vinicius e mais 3 »
Exibir acordes »
publicidade
fechar