Rios de Amor

Victor e Leo

 Victor e Leo
Tom: G#
		
(capo 1ª casa)

(intro)


E|----4------4------4------4----4-----------
B|-------------2------1-----------1---------
G|-1----1h3------3-----------3--------------
D|----------------------1-------------------  (2x)
A|------------------------------------------
E|------------------------------------------


(primeira parte)

(parte 1)

    Ab         C#          Ab
E|-4---------1----------4---------4---------
B|-----1----------2---------1---------1-----
G|---------1----------1---------1---------1-
D|---1---1------3---3-----1---1-----1---1---
A|-----------4------------------------------
E|-4--------------------4---------4---------


(parte 2)

    Ab         C#          Eb
E|-4---------1-------------------3----------
B|-----1----------2---------4--------4------
G|---------1--------------3----3---------3--
D|---1---1------3-------1----1---1-1---1----
A|-----------4------------------------------
E|-4----------------4-----------------------


(parte 3)

    Ab          C# pas. Ab  pas.   C#
E|-4----------------4-----------------------
B|-----1------2-1-------1------2-1----------
G|---------1------3---------1------3--------
D|---1---1------------1---1-----------------
A|------------4-3-1------------4-3-1--------
E|-4----------------4-----------------------


(pas. - passagem)

(parte 4)

    Ab         C#          Eb
E|-4---------1-------------------3----------
B|-----1----------2---------4--------4------
G|---------1--------------3----3---------3--
D|---1---1------3-------1----1---1-1---1----
A|-----------4------------------------------
E|-4----------------4-----------------------


(parte 5)

    Fm                   C#
E|-1---------1----------1---------1---------
B|-----1----------1---------2---------2-----
G|---------1----------1---------1---------1-
D|---3---3------3---3-----3---3-----3---3---
A|----------------------4---------4---------
E|-1---------1------------------------------


(parte 6)

    C#                    Ab
E|-1---------1----------4---------4---------
B|-----2----------2---------1---------1-----
G|---------1----------1---------1---------1-
D|---3---3------3---3-----1---1-----1---1---
A|-4---------4------------------------------
E|----------------------4---------4---------


(parte 7)

    C7                   Fm
E|-3---------3----------1---------1---------
B|-----1---------1---------1------1---------
G|---------3---------3---------1--1---------
D|---2---2-----2---2-----3---3----3---------
A|-3------------------------------3---------
E|-----------3----------1---------1---------


C#9                      Eb
↓↑↓↑↓↑ (4x)             ↓↑↓↑↓↑ (2x) ↓

Ab           C#              Ab
Eu estava ali, aos pés do vento
Ab                 C#        Eb
Enquanto o vento me acariciava
   Ab            C#        Ab      C#
Estava no céu, longe do tempo   uuu
Ab            C#        Eb
Uma estrela me cadenciava
 Fm                         C#
Vagas lembranças de um coração
C#                         Ab
Fui o campo verde onde você descansou
 C7                     Fm
Fui a voz que lá do sertão te chamou
      C#9
Você disse: "Não"
      Eb
E chorou

(refrão)
C#9            Ab
A__ves   can___tantes
C#9            Ab
Ma_tas  gi____gantes
C#9            Ab          Eb
So_los  plan___tantes em flor

C#9            Ab
A__ves   can___tantes
C#9            Ab
Ma_tas  gi____gantes
C#9            Ab          Eb
So_los  plan___tantes em flor

(passagem do refrão)

    Eb
E|-4p3------------------
B|-----4----------------
G|----------------------
D|----------------------
A|----------------------
E|----------------------


Rios de amor

(repete o padrão do dedilhado, com a letra diferente)

 Ab          C#         Ab
Caso te acometa a saudade
 Ab           C#          Eb
Vou deixar aberta a porteira
 Ab           C#       Ab    C#
Tão sozinha nesta cidade  aaa
Ab            C#             Eb
A pensar em mim a noite inteira
      Fm                   C#
Você diz que quer mas não vem
C#                             Ab
Eu não posso te obrigar a tentar ser feliz
 C7                       Fm
Se você vier, meu bem, virá porque quis
       C#9               Eb
Só te peço: "Vem, meu amor"

(refrão)
133.862 exibições

Comentários 4

  • dodozinho dodozinho: Postado em 15/05/2012 23:58

    Que disperdicio terem feito video aula dessa musica :-/ tinham que fazer video aula da musica jamais deixarei você da bruna karla.

  • fabim96 fabim96: Postado em 14/09/2011 00:15

    a Cifra ta diferente da video-aula troca aii

  • l77 l77: Postado em 03/06/2011 14:39

    Linda musica!!

  • nathaliacbc nathaliacbc: Postado em 06/05/2011 20:44

    Parabéens fofão , toca muito.. ficou perfeita . Beijos , NB ?

Composição: Victor Chaves
Esse não é o compositor? Avise-nos.
Contribuição: Hikynhow Correções: Hygor_Rocha e mais 1 »
Exibir acordes »
publicidade
fechar