Ainda existe um lugar

Wilson Paim

 Wilson Paim
Tom: D
		

Intro: A7  D  B7  E7  D  A  E7  A  D  A  E7  A
E|---------------------------9------9-------12----9-----7----6/7---7---6----7----10----9-----9--------|
B|--------------------------10----10------14---10----9----8/9---9---8----9----10---10---10------------|
G|-9h11---8--9--------------------------------------------------------------------------9-----9-----9-|
D|----------------------------------------------------------------------------------------------------|
A|----------------------------------------------------------------------------------------------------|
E|----------------------------------------------------------------------------------------------------|



E|--------------------------9----9----8/9---8--7---6/7---7---------------------------------------------|
B|-------------------------10--10---9/10--9--8---7/8---8----------5---7--7----11---8----7---7----------|
G|--9h11--8--9--------------------------------------------------------6----6--7--7----10----9----7---7-|
D|--------------------------------------------------------------------------7--------------------------|
A|-----------------------------------------------------------------------------------------------------|
E|-----------------------------------------------------------------------------------------------------|



E|---------------------------12---10-----------------12--10----10--------------------10----9-----9-|
B|---------------------------10---10-----------------10--10----10--------------------10---10---10--|
G|-11h12--10--11----11---11---11--11----11--11----11-----11--11------9-----9-----9-----------------|
D|---------------------------12---12-----------------12---12----12---------------------------------|
A|-------------------------------------------------------------------------------------------------|
E|-------------------------------------------------------------------------------------------------|



E|-----------------------------------------------------------------------------------------------------------|
B|------------------------------------5--7---7/9----9---5---5\3----------------------------------------------|
G|-----------------------4--6--7-------------7/9----9---6---6\4----------------------------------------------|
D|-----------4--6--7--------------------------------------------------------2/6---2--------------------------|
A|-4--5--7------------------------------------------------------------------4/7---4\2-----3---3/4------------|
E|---------------------------------------------------------------------------------------------------4---4/5-|



E|-------9---------10----------11-----------12------11/12----11/12-|
B|-10------12----------13----------14---------------13/14----13/14-|
G|-----------------------------------------------------------------|
D|-----------------------------------------------------------------|
A|-----------------------------------------------------------------|
E|-----------------------------------------------------------------|


         A
Venha sentir a paz que existe aqui no campo
                                  E7
O ar é puro e a violência não chegou
           D                         A
O céu bem limpo e muito verde pela frente
          E7                      A E7
E uma vertente que não se contaminou
        A
Pela manhã o sol nascente vem sorrindo
                         A7         D
E os passarinhos cantam hinos no pomar
                                A
O chimarrão tem o sabor de esperança
         E7                        A E7
E uma criança traz um futuro no olhar

Refrão:
          A           E7         D  A
De tardesita tem os banhos no riacho
                       A7           D
Jogo de truco junto a sombra do galpão
                                    A
Uma purinha que faz rima com outro mate
              E7                        A   (2x)
E um cão que late contra o guaxo no oitão

Intro: A7  D  B7  E7  D  A  E7  A  D  A  E7  A

         A
O anoitecer nos apresenta mais estrelas
                                     E7
Entre o silêncio que da paz para o luar
           D                       A
De vez em quando um cometa incandescente
           E7                       A E7
Se faz presente pra um pedido repontar
           A            E7          A
Aqui a verdade ainda reside em cada alma
                           A7                D
Se aperta firme quando alguém lhe estende a mão
                                A
Se da exemplo de amor, fraternidade
          E7                          A E7
Aos da cidade que nem sabem pra onde vão

Refrão:
          A           E7         D  A
De tardesita tem os banhos no riacho
                       A7           D
Jogo de truco junto a sombra do galpão
                                    A
Uma purinha que faz rima com outro mate
              E7                        A    (2x)
E um cão que late contra o guaxo no oitão

              E7                        A
E um cão que late contra o guaxo no oitão   (2x)

Intro: A7  D  B7  E7  D  A  E7  A  D  A  E7  A
38.347 exibições

Comentários 2

  • escaravelo escaravelo: Postado em 31/07/2012 19:45

    Queria saber se tem como colocar os solos que Wilson Pain faz durante a musica! Se puderem eu agradeço! Valeu

  • escaravelo escaravelo: Postado em 31/07/2012 19:44

    Ei Cara vocês poderiam! Colocar os solos que o Wilson Pain faz durante a musica? Por favor se puderem colocar eu agradeço! Vlw

Composição: Ivo B. Brum / Miguel Marques
Esse não é o compositor? Avise-nos.
Contribuição: harrisson Correções: pietrocallegaro e mais 1 »
Exibir acordes »
publicidade
fechar