Enviar cifraEntrar

Romance

14 Bis

Cifra: Principal
exibições 5.371
Tom: G
(intro 2x) G C/G G
          D/F# C/E G/D D4/7 Bm7 Em7 Am7 D7/F# G C/G G C/G


             G                     C/G          G  (2x)
E|------10---10---10---10----8---7--------
B|------12---12---12---12---10---8--------
G|----------------------------------------
D|----------------------------------------
A|----------------------------------------
E|----------------------------------------


        D/F#                   C/E  G/D       D4/7       Bm7              Em7
E|------------------------------------15-15-15......---14--12--10---8---7----------
B|---10-10-10-..........--8---8.....---------------------------------------------8-
G|---------------------------------------------------------------------------------
D|---------------------------------------------------------------------------------
A|---------------------------------------------------------------------------------
E|---------------------------------------------------------------------------------


       Am7     D7/F#             G            C/G  C  C/G
E|----8---8---8---8---7---10-10-10.....................--
B|----------------------------------------------------
G|----------------------------------------------------
D|----------------------------------------------------
A|----------------------------------------------------
E|----------------------------------------------------


G       C/G     G     C/G
Flores simples enfeitando
  Am7  D7/F# G
A mesa do café
  G   C/G    G     C/G  Am7 D/F#      G
Lindas e pequenas, arco-íris    num buquê
  C      D/C    Bm7
Mistério azul de luz
   Em7    Am7  D7   G
E Vênus brilha temporã
   C      D/C     Bm7   Em7
Mistura em nós um só destino
 Am7        D/F# C/E D/F#
Estrela da manhã
  G    C/G    G
Como num romance
   C/G     Am7   D7/F#   G
Um Deus risonho aqui passou
    C/G    G     C/G
Derramando cachoeiras
Am7 D/F#       G
Pela serra em flor
  C      D/C  Bm7  Em7
Viver no coração da lenda
 Am7  D7     G
É fácil, meu amor
   C     D/C   Bm7  Em7
Um sonho novo todo dia
Am7            C
Que ninguém sonhou
    D/C      Am7
Uh...uh...uh...uh....
D4/7       G
Canção de amor
Introdução
G    C/G   G     C/G    Am7   D7/F#  G
Cintilando na janela aberta   pro    luar
G      C/G    G   C/G  Am7 D/F#   G
Luzes da cidade refletidas   num olhar
     C   D/C        Bm7  Em7  Am7     D7      G
Constelações entre as antenas brincam de brilhar
    C   D/C       Bm7 Em7
Estrelas novas no horizonte
Am7         D/F# C/E D/F#
Vêm nos visitar
G   C/G    G        C/G    Am7   D7/F#   G
Como num romance um Deus risonho aqui passou
    C/G   G      C/G   Am7    D/F#    G
Numa nave cor da noite que ninguém notou
      C   D/C   Bm7  Em7   Am7  D7     G
No coração da fantasia  é   fácil   entender
   C     D/C  Bm7  Em7
Um sonho novo todo dia
Am7        C
Lindo de viver
D/C      Am7
Uh...uh...uh...uh....
D4/7     G
Eu e você
2 vezes a introdução
G   C/G      G        C/G    Am7   D7/F#   G
Como num romance um Deus risonho aqui passou
    C/G   G      C/G   Am7    D/F#    G
Numa nave cor da noite que ninguém notou
  C      D/C  Bm7  Em7
Viver no coração da lenda
   Am7  D7     G
É fácil, meu amor
   C     D/C   Bm7  Em7
Um sonho novo todo dia
Am7            C
Que ninguém sonhou
   D/C      Am7
Uh...uh...uh...uh....
D4/7        G
Canção de amor
  • 1
  • 2
  • 3
  • 4
  • 5
  • 6
  • 7
  • 8
  • 9
  • 10
  • 11
  • 12
    Acordes para:
      Colaboração e revisão:
      • VLADI DU KAVAKO ...........®
      • ffera

      0 comentários

        mostrar mais comentários

        Conseguiu tocar?

        0tocaram0ainda não

        Grave um vídeo tocando Romance e mande pra gente!

        00:00 / 00:00
        outros vídeos desta música
        repetirqualidadeautomática
        • automática
        Outro vídeos desta música
          00:00 / 00:00
          automática
          • automática
          Acordes para:violão e guitarra
          dificuldadeexibiçõescontribuições
          fecharplay/pause subir/descer velocidade
            Acordes para:violão e guitarra
            acordes
            fechar
            OK