Cifra Club

Anjos Na Rebeldia

1Kilo

Cifra: Principal (violão e guitarra)
exibições 71.328
Tom: Gm
[Intro]  Gm  A#7(13)  Eb7M  Am5-  D7  Gm  F7  A#7  D7
         Gm  A#7(13)  Eb7M  Am5-  D7  Gm  F7  A#7  D7


E|-10---10-8----8----8------10/13--10-------|
B|------------11---11--11-------------------|
G|------------------------------------------|
D|------------------------------------------|
A|------------------------------------------|
E|------------------------------------------|

E|--10-8----8----8--------------------------|
B|--------11---11--11-10-8------------------|
G|------------------------------------------|
D|------------------------------------------|
A|------------------------------------------|
E|------------------------------------------|

E|-10-8----8----8----------10/13--10---8----|
B|-------11---11--11------------------------|
G|------------------------------------------|
D|------------------------------------------|
A|------------------------------------------|
E|------------------------------------------|

Gm              A#7(13)
Amanheceu o dia, anjos na rebeldia
Eb7M                   Am5-     D7
Cobrindo o céu e não deixando ninguém ver o azul
Gm            F7
Se eu ainda permaneço meu bem
A#7                   D7
Se eu ainda te enlouqueço esquece tudo e vem
Gm              A#7(13)
Amanheceu o dia, anjos na rebeldia
Eb7M                   Am5-     D7
Cobrindo o céu e não deixando ninguém ver o azul
Gm            F7
Se eu ainda permaneço meu bem
A#7                   D7
Se eu ainda te enlouqueço esquece tudo e vem

Gm              A#7(13)
   Lembro do café que você passava
Eb7M               Am5-    D7
antes de ir pro trabalho meu amor
Gm          F7
Uma casa com pé de goiaba
A#7               D7
bem nas costas do cristo redentor
Gm        A#7(13)
Um real de pão,quando passava
Eb7M            Am5-    D7
Com um megafone dizendo o sabor
Gm             F7
que a vida tem após a madrugada
A#7              D7
Um samba boêmio de trabalhador

Gm  A#7(13)  Eb7M  Am5-  D7  Gm  F7  A#7  D7

[Solo]

E|-----------------------------14/16\14-----|
B|-------11--13--13/15----------------------|
G|---12-----------------12-12---------------|
D|--12--------------------------------------|
A|------------------------------------------|
E|------------------------------------------|

E|------------------------------------------|
B|---15-13-15---------------------15--------|
G|------------15-14-12---12-14-15-----------|
D|------------------------------------------|
A|------------------------------------------|
E|------------------------------------------|

E|--13/11--11/9---9/8-----------------------|
B|---15/13--13/11--11/10--------------------|
G|------------------------------------------|
D|------------------------------------------|
A|------------------------------------------|
E|------------------------------------------|

Gm              A#7(13)
Amanheceu o dia, anjos na rebeldia
Eb7M                   Am5-     D7
Cobrindo o céu e não deixando ninguém ver o azul
Gm            F7
Se eu ainda permaneço meu bem
A#7                   D7
Se eu ainda te enlouqueço esquece tudo e vem
Gm              A#7(13)
Amanheceu o dia, anjos na rebeldia
Eb7M                   Am5-     D7
Cobrindo o céu e não deixando ninguém ver o azul
Gm            F7
Se eu ainda permaneço meu bem
A#7                   D7
Se eu ainda te enlouqueço esquece tudo e vem

        Gm          A#7(13)
Ela chamou eu vim,pra sambar neguim
     Eb7M                     Am5-  D7
Tô querendo a Vera, nada é demais pra mim
     Gm                      F7
Chega de "Mansin", mas se ela pede é sim
       A#7                      D7
Sangue pulsa forte ao som de um tamborim
         Gm               A#7(13)
Tô sem pressa de chegar,esperando o sol nascer
      Eb7M               Am5-         D7
Toda manhã, todo amanhã,quero acordar com você
         Gm                  F7
Deixa o tempo te mostrar porque é preciso saber
 A#7          D7
Viver... É ser feliz agora

Gm                        A#7(13)
   Esperando o 397 sob o chuvisco do meu
         Eb7M                                  Am5-
Sorriso moleque.Amanhã eu gravo minha primeira track
       D7              Gm
Ontem eu sonhei que vivia de rap
                          F7
Meu pai me escuta,meu coração que imitava um boom bap
             A#7                      D7
Meu irmão no UPA, quantos pivete de canivete
                               Gm
Na feira da glória vendíamos fruta
          A#7(13)       Eb7M
Ela me olhou com seus olhos
Am5-    D7
De quem sabe amar
Gm             F7
 Oque é que tem, eu te devoro
A#7   D7
  Após me decifrar

Gm              A#7(13)
Amanheceu o dia, anjos na rebeldia
Eb7M                   Am5-     D7
Cobrindo o céu e não deixando ninguém ver o azul
Gm            F7
Se eu ainda permaneço meu bem
A#7                   D7
Se eu ainda te enlouqueço esquece tudo e vem
Gm              A#7(13)
Amanheceu o dia, anjos na rebeldia
Eb7M                   Am5-     D7
Cobrindo o céu e não deixando ninguém ver o azul
Gm            F7
Se eu ainda permaneço meu bem
A#7                   D7
Se eu ainda te enlouqueço esquece tudo e vem

[Final] Gm  A#7(13)  Eb7M  Am5-  D7  Gm  F7  A#7  D7
Acordes para:
    Colaboração e revisão:

    0 comentários

      mostrar mais comentários

      Conseguiu tocar?

      9tocaram5ainda não

      Grave um vídeo tocando Anjos Na Rebeldia e mande pra gente!

      00:00 / 00:00
      outros vídeos desta música
      repetirqualidadeAutomático
      Outro vídeos desta música
        00:00 / 00:00
        OK