Cifra Club

Você Vai Entender

1Kilo

Cifra: Principal (violão e guitarra)
exibições 127.871
Tom: D#m
[Introdução 4x] D#m7  B7M(9)

[Dedilhado Introdução e Primeira Parte]

Parte 1 de 4
     D#m7        B7M(9)
E|------------------------------------------|
B|-------9---7------------------------------|
G|-----6---------6--------------------------|
D|---8-----------8--------------------------|
A|-6----------------------------------------|
E|---------6---7----------------------------|

Parte 2 de 4
E|------------------------------------------|
B|------------------------------------------|
G|------------------------------------------|
D|------------------------------------------|
A|---2h4-2--2-2p1---------------------------|
E|-2--------------2-------------------------|

Parte 3 de 4
     D#m7        B7M(9)
E|------------------------------------------|
B|-------9---7------------------------------|
G|-----6---------6--------------------------|
D|---8-----------8--------------------------|
A|-6----------------------------------------|
E|---------6---7----------------------------|

Parte 4 de 4
E|------------------------------------------|
B|------------------------------------------|
G|------------------------------------------|
D|------------------------------------------|
A|---2--2-2p1-------------------------------|
E|-2----------2-----------------------------|


[Primeira Parte]

            D#m7              B7M(9)
Eu me esquivei de todas marteladas

E entre todas opções

Tô na mais arriscada

Meus irmãos na luta
  D#m7           B7M(9)
Iluminando cada passo

E mesmo quando me sentia só

Havia alguém ali

              D#m7
Eu peço proteção a todos os meus
B7M(9)
       Ouço reclamações

E o mundo continua igual
                D#m7
A força que eu peço a ti
         B7M(9)
A calma que eu peço a ti

A benção que eu peço a ti

(Ó Deus, eu sei que cê vai entender)
                D#m7
A força que eu peço a ti
         B7M(9)
A calma que eu peço a ti

A benção que eu peço a ti

(Ó Deus, eu sei que cê vai entender)


[Refrão]

   D#m7
Ó Deus
B7M
    Que palhaçada tem aí pra mim?
                         D#m7
Que desapego vou ter que aprender?
B7M
    O que é que mais

Vou precisar passar?
                             D#m7
Quem mais vou precisar esquecer?
                B7M
Eu tô Morgado, tô meio deprê

E se te ofende quando eu fervo

Se eu escuto um papo errado
          D#m7
É que tá foda de resolver
   B7M
Tudo que tem rolado

Manda o teu papo e se adianta, brow

[NaBrisa]


         D#m7
Redescobrindo o meu eu
    B7M
Eu perguntei para Deus

Por que me deu o livre arbítrio

De escolher o que é meu?
              D#m7
Por que o Senhor me escolheu?
         B7M
Se quem tinha que escolher era eu

Se carregava ou não o fardo

De ter que ser um dos seus

         D#m7
Não sou rosa, não sou pura
 B7M
Não sou dele e não sou sua

Meu caminho tem mais espinhos

Que a própria rosa nua
     D#m7            B7M
Na rua vago-me fazendo perguntas

Puxo, paro, e penso
                              D#m7
A vida curta e a chance é única
            B7M
De fazer a diferença

Ou então ser mais uma
                                   D#m7
Olhei pro céu e falei: Yeshua, Yeshua
               B7M
Porque todo esse talento se, porra

Ninguém me escuta?

Atura ou surta, entrei no jogo
                    D#m7
Mas não foi pra disputa
                 B7M
Mas não vou abaixar a cabeça

Pra nenhum filha da puta

Que me julga puta pelas veste
               D#m7
E não sabe da luta
          B7M
Da força de vontade

Que um dia ultrapassa a lua

Esses verso é sua bula
               D#m7      B7M
Babilônia já caiu, irmão

Tua prata não é porra nenhuma

Prefiro teu coração, Jão


[Refrão]

   D#m7
Ó Deus
B7M
    Que palhaçada tem aí pra mim?
                         D#m7
Que desapego vou ter que aprender?
B7M
    O que é que mais

Vou precisar passar?
                             D#m7
Quem mais vou precisar esquecer?
                B7M
Eu tô Morgado, tô meio deprê

E se te ofende quando eu fervo

Se eu escuto um papo errado

          D#m7
É que tá foda de resolver
   B7M
Tudo que tem rolado

Manda o teu papo e se adianta, brow

[Baviera]

                  D#m7
Tem noite que eu nem durmo
      B7M
Só peço a Deus progresso aos meus

Rumo ao topo do topo do jogo

Luto muito mano, mas ainda é pouco
                   D#m7            B7M
Vamo, a vida é um sopro e tudo passa

O que fica é seu legado

Faça algo concreto ou vire fumaça

Assumo, sou tão focado que eu nem fumo

 D#m7          B7M
Só verso, nem durmo

E o vizinho reclama do barulho, braço

É fácil falar do bagulho

Se eu fosse famoso

Cê comprava ingresso, certo?

D#m7                           B7M
     Pra escutar esse mermo barulho

Que hoje eu faço com orgulho

O que eu passo no mundo eu expresso

Tudo nos versos

E se Deus não quisesse

Que eu nascesse mudo


 D#m7                       B7M
Certo pelo certo, né, mano?

Sigo cantando, musicando a vida

Eu juro, até meu último suspiro

Vai sair rimando
      D#m7                  B7M
Eles querem eu cego e surdo

Nesse mar que eu navego há vários anos

E não afundo nesse oceano de ego

         D#m7
Trago a paz que eu planto e rego

Quero mais pelo o que eu prego

O sistema quer você burro

Seja martelo e não prego
  D#m7
Avesso de tudo
                B7M
Não atendo a demanda, encomenda

É o fardo que eu carrego

Pássaro preso em gaiola

Não canta, lamenta

Eu vou voar pelo mundo


[Base Solo] D#m7  B7M  D#m7  B7M


          D#m7  B7M
Tu pode até tentar
               D#m7  B7M
Tirar minha razão
         D#m7  B7M
Tu pode me  pisar
                   D#m7  B7M
E evitar minha canção
                     D#m7  B7M
Mas, mas tu não pode e__vitar que eu
               D#m7  B7M
Toque seu coração
          D#m7  B7M
Tu não pode  calar
                    D#m7  B7M
O grito de uma geração


[Levada Principal]

Parte 1 de 2
     D#m7        B7M
E|---------x------------x-x-----------------|
B|-------6-x-7---7--7-7-x-x-----------------|
G|-----6---x-----8--8-8-x-x-----------------|
D|---8-----x-----8--8-8-x-x-----------------|
A|-6-------x------------x-x-----------------|
E|---------x---7----7-7-x-x-----------------|
                    ↓ ↑ ↓ ↑
Parte 2 de 2
     B7M
E|-----x-x-x------------x-x-----------------|
B|-7-7-x-x-x-7-7----7-7-x-x-----------------|
G|-8-8-x-x-x-8-8----8-8-x-x-----------------|
D|-8-8-x-x-x-8-8----8-8-x-x-----------------|
A|------------------------------------------|
E|-7-7-----------7--------------------------|
   ↓ ↑ ↓ ↑ ↓        ↓ ↑ ↓ ↑
Acordes para:

    0 comentários

      mostrar mais comentários

      Conseguiu tocar?

      4tocaram11ainda não

      Grave um vídeo tocando Você Vai Entender e mande pra gente!

      00:00 / 00:00
      outros vídeos desta música
      repetirqualidadeAutomático
      Outro vídeos desta música
        00:00 / 00:00
        Capítulos
        • Tocando a música
        • Apresentação / Equipamentos
        • Acordes introdução e primeira parte
        • Tocando introdução e primeira parte
        • Dedilhado introdução e primeira parte
        • Parte 1 de 4
        • Parte 2 de 4
        • Parte 3 de 4
        • Parte 4 de 4
        • Acordes refrão
        • Tocando refrão
        • Levada principal
        • Parte 1 de 2
        • Parte 2 de 2
        • Encerramento
        OK