Cifra Club

Mercy

2 Chainz

Cifra: Principal (violão e guitarra)
Selo Cifra Club: esta cifra foi revisada para atender aos critérios oficiais da nossa Equipe de Qualidade.
tom: D
main hook
E|---------------------|
B|---2-------2---------|
G|-----2--1----2--1----|
D|:-------------------:|
E|---------------------|
B|---------------------|


bass part
E|----------------|
B|----------------|
G|----------------|
D|-6----1-6-------|
A|-6----1-6-------|
E|-6----1-6-------|



Kanye west part

E|------------------------------------|
B|------------------------------------|
G|-------------------6-------5-5-8-8--|
D|-9-------8---------6-6-6-6-5-5-8-8--|
A|-9-9-9-9-8-8-8-8---4-4-4-4-3-3-6-6--|
D|-9-9-9-9-8-8-8-8--------------------|
Outros vídeos desta música
    25 exibições
      • ½ Tom
      • A
      • Bb
      • B
      • C
      • Db
      • D
      • Eb
      • E
      • F
      • F#
      • G
      • Ab
    • Adicionar à lista

    Afinação da cifra

    Afinador online

      0 comentários

      Ver todos os comentários

      Entre para o Cifra Club PRO

      Tenha acesso a benefícios exclusivos no App e no Site

      • Chega de anúncios

      • Badges exclusivas

      • Mais recursos no app do Afinador

      • Atendimento Prioritário

      • Aumente seu limite de lista

      • Ajude a produzir mais conteúdo

      Cifra Club Pro

      Aproveite o Cifra Club com benefícios exclusivos e sem anúncios
      Cifra Club Pro
      Aproveite o Cifra Club com benefícios exclusivos e sem anúncios
      Ops (: Contenido disponible sólo en portugués.
      OK