Cifra Club

Aprenda

When You're Young

3 Doors Down

Cifra: Principal (violão e guitarra)
Tom: C
Intro:
      Am                                    C
E|----------------------------------------------------------------------|
B|----------0h1--------------3h1------------------0h1--------4--1-- 0h1-|
G|-------2-------2----------------2------------0-------0----------------|
D|----2-------------2----------------2------2-------------2-------------|
A|-0-------------------2--2--------------3------------------------------|
E|----------------------------------------------------------------------|

                                                 Am
E|-----------0-----------------0----------------------------------------|
B|--------1-----1-----1-----1-----1------1-------------1----------------|
G|-----2-----------2-----2-----------2--------------2-----2-------------|
D|--3--------------------------------------------2-----------2----------|
A|--------------------------------------------0-----------------5-------|
E|----------------------------------------------------------------------|


C                                  Am
So far away from knowing where I'm going
F                                Am G
I'm trying hard to find out who I am
C                                       Am
They all see that I don't know what I'm doing
F                             Am G
I say they don't hardly understand

Dm                   G
Why can't they remember
Em                   Am
What I'll never forget
Dm                       G
How these dreams can come undone
               Am
When you're young

Refrão:
Am       C         F             G
You give what you give cause they make you
Am       C         F             G
Trapped inside a place that won't take you
Am       C         F               G
they want you to be what they make you
Am            Dm          G
It's already over and done
             Am
When you're young

                  C
Everything seems perfect
F                Am  G
 Everything's okay
C                      Am
it will all get better now
F                         Am G
At least that's what they say
Dm                      G
But I don't see it coming

Refrão:
Am       C         F             G
You give what you give cause they make you
Am       C         F             G
Trapped inside a place that won't take you
Am       C         F             G
they want you to be what they make you
Am            Dm          G
It's already over and done
Dm
When you're young

                        Am
Days really just seem longer
C                           G
They say it's better this way
Dm                       G
I hope one day I'm stronger than I feel
    Am
And I hope it feels different than today

Solo 2x: Am  C  F  G

Refrão:
Am       C         F             G
You give what you give cause they make you
Am       C         F             G
Trapped inside a place that won't take you
Am       C         F             G
they want you to be what they make you
Am            Dm          G
It's already over and done
Am            Dm          G
It's already over and done
Am            Dm          G
It's already over and done
               Am
When you're young

Dm                   G
Why can't they remember
Em                 Am
What I'll never forget
Dm                          G
How these dreams can come undone
         Am
When you're young
Composição de Brad Arnold / Chris Henderson / Marti Fredriksen / Matt Roberts
Colaboração e revisão:
14.099 exibições
    • ½ Tom
    • A
    • Bb
    • B
    • C
    • Db
    • D
    • Eb
    • E
    • F
    • F#
    • G
    • Ab
  • Adicionar à lista

    0 comentários

    Mostrar mais comentários

    Conseguiu tocar?

    4 Tocaram 0 Ainda não

    Grave um vídeo tocando When You're Young e mande pra gente!

    00:00 / 00:00
    outros vídeos desta música
    repetir qualidade Automático
    Outros vídeos desta música
    00:00 / 00:00
    Automático
    OK