Cifra Club

Aprenda

Hurricane

Thirty Seconds To Mars

Cifra: Principal (violão e guitarra)
tom: D
(intro/verso)

E|--0---0-------------------------|
B|--0---0-------------------------|
G|--2---2-------------------------| x8
D|--2---3-------------------------|
A|--0---3-------------------------|
E|--x---1-------------------------|

(pre-refrão)
E|--0---0-------------------------|
B|--3---0-------------------------|
G|--0---1-------------------------|
D|--0---2-------------------------|
A|--2---2-------------------------|
E|--3---0-------------------------|

(refrão)
E|--0---0---0----------------------|
B|--0---3---0----------------------|
G|--2---0---2----------------------|
D|--3---0---2----------------------| x4
A|--3---2---0----------------------|
E|--1---3---x----------------------|

(pós-refrão)
E|------0-------------------------|
B|--p---0-------------------------|
G|--a---2-------------------------|
D|--u---3-------------------------|
A|--s---3-------------------------|
E|--a---1-------------------------|

(verso)
E|--0---0-------------------------|
B|--0---0-------------------------|
G|--2---2-------------------------| x3
D|--2---3-------------------------|
A|--0---3-------------------------|
E|--x---1-------------------------|

(algo parecido com isso)
E|-------------------------------------------------------------------------3-2------------|
B|0-2-3--0-2-3--0-2-3--0-2-3--0-2-3--x3--0-2-3--0-2-3--0-2-3--0-2-3--0-2-3------5--3------|
G|----------------------------------------------------------------------------------------| x6
D|----------------------------------------------------------------------------------------|
A|----------------------------------------------------------------------------------------|
E|----------------------------------------------------------------------------------------|

(refrão)
E|--0---0---0----------------------|
B|--0---3---0----------------------|
G|--2---0---2----------------------|
D|--3---0---2----------------------| x4
A|--3---2---0----------------------|
E|--1---3---x----------------------|

(pausa)

(verso)
E|--0---0-------------------------|
B|--0---0-------------------------|
G|--2---2-------------------------| x4
D|--2---3-------------------------|
A|--0---3-------------------------|
E|--x---1-------------------------|

(pre-refrão)
E|--0---0-------------------------|
B|--3---0-------------------------|
G|--0---1-------------------------|
D|--0---2-------------------------|
A|--2---2-------------------------|
E|--3---0-------------------------|

(refrão)
E|--0---0---0----------------------|
B|--0---3---0----------------------|
G|--2---0---2----------------------|
D|--3---0---2----------------------| x12
A|--3---2---0----------------------|
E|--1---3---x----------------------|

(fim da guitarra)

(piano)

(intro/verso)
E|------------------------------------------|
B|------------------------------------------|
G|-------------------------------------7----| x3
D|--7-9-10-7-9-10-7-9-10-7-9-10-7-9-10------|
A|------------------------------------------|
E|------------------------------------------|

(4ª vez)
E|----------------------------------------------|
B|----------------------------------------------|
G|-------------------------------------10-9-7---|
D|--7-9-10-7-9-10-7-9-10-7-9-10-7-9-10--------5-|
A|----------------------------------------------|
E|----------------------------------------------|

(refrão)
E|----------------------------------------------------|
B|----------------------------------------------------|
G|-----------------------7----------------------7-----| x4
D|--7-9-10-7-9-10-7-9-10---7-9-10-7-9-10-7-9-10-------|
A|--\parte lenta/-----\parte lenta/-------------------|
E|----------------------------------------------------|

(verso)
E|------------------------------------------|
B|------------------------------------------|
G|-------------------------------------7----| x2
D|--7-9-10-7-9-10-7-9-10-7-9-10-7-9-10------|
A|------------------------------------------|
E|------------------------------------------|

(3ª vez)
E|-----------------------------------------------|
B|-----------------------------------------------|
G|-------------------------------------10-9-7----|
D|--7-9-10-7-9-10-7-9-10-7-9-10-7-9-10--------5--|
A|-----------------------------------------------|
E|-----------------------------------------------|

(parte vocal)
E|-7----8----7----5-----|
B|-----deixe soar-------|
G|----------------------|
D|----------------------|
A|----------------------|
E|----------------------|

E|-7-7-7-7-7-----7-7-7-7-7---5-----7-7-7-7-7---5----------------------------|
B|-------------------------------------------------5------------------------|
G|--------------------------------------------------------------------------|
D|--------------------------------------------------------------------------|
A|--------------------------------------------------------------------------|
E|--------------------------------------------------------------------------|

E|------------------------------|
B|---6s/8-8-8---6-5-6-5-6-5s\3--|
G|------------------------------|
D|------------------------------|
A|------------------------------|
E|------------------------------|

E|-7-7-7-7-7-----7-7-7-7-7---5-----7-7-7-7-7---5----------------------------|
B|-------------------------------------------------5------------------------|
G|--------------------------------------------------------------------------|
D|--------------------------------------------------------------------------|
A|--------------------------------------------------------------------------|
E|--------------------------------------------------------------------------|

E|----------------------------------------------------------|
B|---6s/8-8-8---10-10---12-12-------------------------------|
G|----------------------------------------------------------|
D|----------------------------------------------------------|
A|----------------------------------------------------------|
E|----------------------------------------------------------|

(volta o piano)

(refrão)
E|---------------------------------------------------|
B|---------------------------------------------------|
G|-----------------------7----------------------7----| x4
D|--7-9-10-7-9-10-7-9-10---7-9-10-7-9-10-7-9-10------|
A|--\parte lenta/----------\parte lenta/-------------|
E|---------------------------------------------------|

E|---------------------------|
B|---------------------------|
G|----------------------7----|
D|-7-9-10-7-9-10-7-9-10------|
A|-\parte lenta/-------------|
E|---------------------------|

(verso - violino)
E|-------8---7------------8---7---8------10---13---15---12-----|
B|---5----------------5----------------------------------------|
G|---\-------d---e|---i---x---e|-------s---o---a---r-------/-----|
D|-------------------------------------------------------------|
A|-------------------------------------------------------------|
E|-------------------------------------------------------------|

E|---10---8---7---3---5------|
B|---------------------------|
G|---------------------------|
D|---------------------------|
A|---------------------------|
E|---------------------------|

(outro)
E|---------------------------------------------------|
B|---------------------------------------------------|
G|-----------------------7----------------------7----| x5
D|--7-9-10-7-9-10-7-9-10---7-9-10-7-9-10-7-9-10------|
A|--\parte lenta/----------\parte lenta/-------------|
E|---------------------------------------------------|

(a cada 5 vezes troca pra isso)
E|----------------------------------------------------|
B|----------------------------------------------------|
G|--11-10----11-10----11----11-10----11-10----11------|
D|--------11-------11----11-------11-------11----11---|
A|----------------------------------------------------|
E|----------------------------------------------------|
                                                       x8
E|----------------------------------------------------|
B|--------------------------11------------------------|
G|--11-10----11-10----11-------------11-10----11-13---|
D|--------11-------11----11----10-11-------11---------|
A|----------------------------------------------------|
E|----------------------------------------------------|
Colaboração e revisão:
  • Gaby Gonçalves
  • Ícaro Dias
69.755 exibições
  • Simplificar cifra
    • ½ Tom
    • A
    • Bb
    • B
    • C
    • Db
    • D
    • Eb
    • E
    • F
    • F#
    • G
    • Ab
  • Adicionar à lista

    0 comentários

    Ver todos os comentários

    Conseguiu tocar?

    10 Tocaram 3 Ainda não

    Grave um vídeo tocando Hurricane e nos envie!

    00:00 / 00:00
    outros vídeos desta música
    repetir qualidade Automático
    Outros vídeos desta música
    00:00 / 00:00
    Automático

    Cifra Club Pro

    Aproveite o Cifra Club com benefícios exclusivos e sem anúncios
    Cifra Club Pro
    Aproveite o Cifra Club com benefícios exclusivos e sem anúncios
    OK