Cifra Club

Aprenda

Amber

311

Cifra: Principal (violão e guitarra)
tom: C
Intro: C  Am  Em
Riff 1:
E|--------------|----------------|------------|---------|
B|--------------|----------------|------------|---------|
G|--------------|----------9-----|-------4----|---4-----|
D|--------9-----|-------10----10-|-----5----5-|-5----5--|
A|-7h8-10----10-|-10h12----------|-5h7--------|---------|
E|--------------|----------------|------------|---------|


(Riff 1)
Em                              C       Am
Brainstorm, take me away from the norm
Em                              C       Am
I got to tell you something
Em            C  Am                   Em
This phenomenon, I had to put it in a song
                 C
And it goes like

(Riff 1)
Am      Em                              C
Whoa, amber is the color of your energy
Am      Em
Whoa, shades of gold displayed naturally

F                       G
You ought to know what brings me here
F                       G
You glide through my head blind to fear
           C
And I know why

(Riff 1)
Am      Em                              C
Whoa, amber is the color of your energy
Am      Em
Whoa, shades of gold displayed naturally

Solo:
E|-7/8-8-10-12-10-8-10/7-7----------|
B|----------------------------------|
G|---------------------------4-4----|
D|---------------------------5-5--5-|
A|--------------------------------7-|
E|----------------------------------|

E|-7/8-8-10-12-10-8-10/7-7--7-10-7--7-8--|
B|---------------------------------------|
G|---------------------------------------|
D|---------------------------------------|
A|---------------------------------------|
E|---------------------------------------|

E|-----------------------------------------------|
B|-----------------------------------------------|
G|--2-4-5-4-2-2/4--4-5-7-5-4-4/5--5-7-9-7-5-5/4--|
D|--3-3-3-3-3-3/5--5-5-5-5-5-5/7--7-7-7-7-7-7/5--|
A|-----------------------------------------------|
E|-----------------------------------------------|

E|-------0---|
B|---6---1---|
G|---4---0---|
D|---5-------|
A|-----------|
E|-----------|

(Riff 1)
Am      Em                              C
Whoa, amber is the color of your energy
Am      Em
Whoa, shades of gold displayed naturally

E|---8-|-----10-|-----12-|-------15----------------|
B|--8--|---10---|---12---|-13-15-----15--13--------|
G|-9---|-11-----|-13-----|--------------------16\--|
D|-----|--------|--------|-------------------------|
A|-----|--------|--------|-------------------------|
E|-----|--------|--------|-------------------------|

Riff 2:      Riff 3:
E|----------|-----------0-|
B|--------0-|--------0----|
G|------0---|------0------|
D|----2-----|----2--------|
A|-3--------|-------------|
E|----------|-0-----------|

Am              Em
You live too far away
Em                      Em       G
Your voice rings like a bell anyway
(Riff 2)                        (Riff 3)
Don't give up your independence
                        (Riff 2)
Unless it feels so right
                        (Riff 3)
Nothing good comes easily
G                  C
Sometimes you gotta fight

(Riff 1)
Am      Em                              C
Whoa, amber is the color of your energy
Am      Em
Whoa, shades of gold displayed naturally

F                               G
Launched a thousand ships in my heart
F                               G
So easy, still it's fine from afar
                C
And you know that
E|--------------10-10/12~----|
B|-------6-8-10--------------|
G|-5-7-9---------------------|
D|---------------------------|
A|---------------------------|
E|---------------------------|

Whoa, brainstorm take me away from the norm
Whoa, I got to tell you something
Composição de Nicholas Hexum
Colaboração e revisão:
  • Luciano Peixoto
  • Marcelo Costa
21.404 exibições
    • ½ Tom
    • A
    • Bb
    • B
    • C
    • Db
    • D
    • Eb
    • E
    • F
    • F#
    • G
    • Ab
  • Adicionar à lista

    0 comentários

    Ver todos os comentários

    Conseguiu tocar?

    0 Tocaram 0 Ainda não

    Grave um vídeo tocando Amber e nos envie!

    00:00 / 00:00
    outros vídeos desta música
    repetir qualidade Automático
    Outros vídeos desta música
    00:00 / 00:00
    Automático

    Cifra Club Pro

    Aproveite o Cifra Club com benefícios exclusivos e sem anúncios
    Cifra Club Pro
    Aproveite o Cifra Club com benefícios exclusivos e sem anúncios
    OK