Cifra Club

Dont Dwell

311

Cifra: Principal (violão e guitarra)
tom: G
Tabbed by: Ryanst1
Email: *

Tuning: Standard

    VERSE 1
e|---------------------------------------------------------------------------|
B|---------------------------------------------------------------------------|
G|---------------------------------------------------------------------------|
D|---------------------------------------------------------------------------|
A|---------x--5--2--x--5--2--0--0--0h2----------x--5--2--x--5--2--x-2-2------|
E|----3h5----------------------------------3h5-------------------------------|
     
    
 VERSE 2
E|---------------------------------------------------------------------------|
B|---------------------------------------------------------------------------|
G|---------------------------------------------------------------------------|
D|---------------------------------------------------------------------------|
A|-------------0--------0-----0-----------------0--------0-----0-------------|
E|-----0h3--x-----3--x-----3------------0h3--x-----3--x-----3----------------|
  

   VERSE 3
e|---------------------------------------------------------------------------|
B|---------------------------------------------------------------------------|
G|-------------------------------------------------------2--4--55555555------|
D|-------------------------------------------------------2--4--55555555------|
A|-------------0--------0-----0----------------0---------0--2--33333333------|
E|-----0h3--x-----3--x-----3------------0h3-x-----3--x-----------------------|

e|-------------8--8----------------------------------------------------------|
B|-----7777----8--8----------------------------------------------------------|
G|-----7777----9--9----------------------------------------------------------|
D|-----7777----10-10---------------------------------------------------------|
A|-----5555------------------------------------------------------------------|
E|---------------------------------------------------------------------------|
      


Chorus
e|-------7---10---------7---10-8-7-6~-------6--------------6-----------------|
B|-----8---8----7-8-8-----8-------------8-----8--------8-----8---------------|
G|--/9----------------9---------------8---8-----8-8--8---8-----8-7~--7777777-|
D|---------------------------------------------------------------------------|
A|---------------------------------------------------------------------------|
E|---------------------------------------------------------------------------|
    



 END 1
e|---------------------------------------------------------------------------|
B|---------------------------------------------------------------------------|
G|------------------9\5------------------------------------------------------|
D|---5-5-7-7-9-9-10-9\5------------------------------------------------------|
A|---5-5-7-7-9-9-10-7\3------------------------------------------------------|
E|---3-3-5-5-7-7-8-----------------------------------------------------------|

     END 2
e|---------------------------------------------------------------------------|
B|---------------------------------------------------------------------------|
G|-----------------9\5-5-55555-5555------------------------------------------|
D|----5-5-7-7-9-10-9\5-5-55555-5555---5--------------------------------------|
A|----5-5-7-7-9-10-7\3-3-33333-3333---5--------------------------------------|
E|----3-3-5-5-7-8---------------------3--------------------------------------|



ORDER: 
-       Verse 1 x4
-       Verse 2 
-       Verse 1 
-       Verse 3 
-       Chorus
-       Verse 1 x3 
-       Verse 2 
-       Verse 1 
-       Verse 3 
-       Chorus 
-       Verse 1 
-       End 1 x2 
-       End 2 
-       End 1 x@ 
-       End 2




| /  slide up
| \  slide down
| h  hammer-on
| p  pull-off
| ~  vibrato
| +  harmonic
| x  Mute note
=======================================================================
00:00 / 00:00
Outros vídeos desta música
Repetir
Outros vídeos desta música
Composição de Nicholas Hexum
396 exibições
    • ½ Tom
    • A
    • Bb
    • B
    • C
    • Db
    • D
    • Eb
    • E
    • F
    • F#
    • G
    • Ab
  • Adicionar à lista

    0 comentários

    Ver todos os comentários

    Conseguiu tocar?

    0 Tocaram 0 Ainda não

    Grave um vídeo tocando Dont Dwell e nos envie!

    00:00 / 00:00

    Cifra Club Pro

    Aproveite o Cifra Club com benefícios exclusivos e sem anúncios
    Cifra Club Pro
    Aproveite o Cifra Club com benefícios exclusivos e sem anúncios
    OK