Cifra Club

Lively Up Yourself

311

Cifra: Principal (violão e guitarra)
Selo Cifra Club: esta cifra foi revisada para atender aos critérios oficiais da nossa Equipe de Qualidade.
tom: Em
Intro:
======
   N.C
E|1| :--------------------------|
B|2| :--------------------------|
G|3| :--------------------------|
D|4| :------------4--6----------|
A|5| :---4--6---5---------4--6--|
E|6| :-5----------------5-------|

Chorus:
=======
   D#        C
E|1| :-11--11----8--8-|
B|2| :-11--11----9--9-|
G|3| :-12--12----8--8-|
D|4| :----------------|
A|5| :----------------|
E|6| :----------------|

Bridge:
=======
   N.C
E|1| :------------------|
B|2| :------------------|
G|3| :------------------|
D|4| :---4-6-8----------|
A|5| :-6------------4-6-|
E|6| :----------4-6-----|

Chorus B:
=========
   D#   C
E|1| :-11---8-|
B|2| :-11---9-|
G|3| :-12---8-|
D|4| :--------|
A|5| :--------|
E|6| :--------|

End:
====
   N.C
E|1| :--------|
B|2| :--------|
G|3| :--------|
D|4| :--------|
A|5| :---4--6-|
E|6| :-5------|
Outros vídeos desta música
12 exibições
    • ½ Tom
    • Am
    • Bbm
    • Bm
    • Cm
    • C#m
    • Dm
    • Ebm
    • Em
    • Fm
    • F#m
    • Gm
    • G#m
  • Adicionar à lista

Afinação da cifra

Afinador online

    0 comentários

    Ver todos os comentários

    Entre para o Cifra Club PRO

    Tenha acesso a benefícios exclusivos no App e no Site

    • Chega de anúncios

    • Mais recursos no app do Afinador

    • Atendimento Prioritário

    • Aumente seu limite de lista

    • Ajude a produzir mais conteúdo

    Cifra Club Pro

    Aproveite o Cifra Club com benefícios exclusivos e sem anúncios
    Cifra Club Pro
    Aproveite o Cifra Club com benefícios exclusivos e sem anúncios
    OK