Cifra Club

Aprenda

Interior

5 a Seco

Cifra: Principal (violão e guitarra)
Tom: G (forma dos acordes no tom de A) Afinação: D G C F A D
[Intro] E  A

E|------------------------------------|
B|------------------------------------|
G|----1-2-1---------------------------|
D|-2---------2-0----------------------|
A|----------------2-------------------|
E|-------------------0----------------|

E                                   A
Por ser daqui, conheço as ruas e calçadas
                        E
Conheço o interior das casas
                                      D
E o interior de quem vive dentro das casas
Db        A           E
E o interior do interior

E                                         A
Conheço histórias que há milênios são contadas
                     E
Outras que foram apagadas
                                         D
Conheço histórias que ainda estão encasuladas
Db   A             E
Só esperando acontecer

( E  E(b5) )
( E  E(b5) ) 

E          F#   
Recolho as impressões
A
Curo desilusões
E      F#                A      
E faço algum refrão das coisas que vivi
E            F#
Concentro as emoções
A
Miro nos corações
E       F#                   A 
E canto aquilo que eu vou ser por ser daqui

( E  A )
 
E|------------------------------------|
B|------------------------------------|
G|---1-2-1----------------------------|
D|-2---------2-0----------------------|
A|----------------2-------------------|
E|-------------------0----------------|

E                                     A
Por ser daqui, conheço as frases e as pausas
                   E
Entendo todas as piadas
E                                        D
Sei distinguir um pôr do Sol de uma alvorada
Db   A              E
Dia de chuva sei prever

E                                        A
Posso dizer com precisão se o trem se atrasa
                               E
Eu posso entrar, que eu sou de casa
                                     D
E quando me entristeço porque a vida passa
Db    A              E
Eu lembro do que vai nascer

( E  E(b5) )
( E  E(b5) ) 

E          F#   
Recolho as impressões
A
Curo desilusões
E      F#                A      
E faço algum refrão das coisas que vivi
E            F#
Concentro as emoções
A
Miro nos corações
E          F#               A 
E canto aquilo que eu vou ser por ser daqui

( E  A )
 
E|------------------------------------|
B|------------------------------------|
G|----1-2-1---------------------------|
D|-2---------2-0----------------------|
A|----------------2-------------------|
E|-------------------0----------------|

( E )
Composição de Tó Brandileone / Vinicius Calderoni
Colaboração e revisão:
  • fran
  • matheus almeida
354 exibições
    • ½ Tom
    • A
    • Bb
    • B
    • C
    • Db
    • D
    • Eb
    • E
    • F
    • F#
    • G
    • Ab
  • Adicionar à lista

    0 comentários

    Mostrar mais comentários

    Conseguiu tocar?

    0 Tocaram 0 Ainda não

    Grave um vídeo tocando Interior e mande pra gente!

    00:00 / 00:00
    outros vídeos desta música
    repetir qualidade Automático
    Outros vídeos desta música
    00:00 / 00:00
    Automático

    Cifra Club Pro

    Aproveite o Cifra Club com benefícios exclusivos e sem anúncios
    7 dias grátis
    Cifra Club Pro
    Aproveite o Cifra Club com benefícios exclusivos e sem anúncios
    7 dias grátis
    OK