Cifra Club

Aprenda

Ever Enough

A Rocket To The Moon

Cifra: Principal (violão e guitarra)
tom: Db (forma dos acordes no tom de C) Capotraste na 1ª casa
E|----------------------------------|--0---------3----3------3---------|----------------------------------|
A|--3---------3-----3-------3-------|----------------------------------|--0---------0----0-------0--------|
D|----------------------------------|----------------------------------|----------------------------------|
G|----0--0--0---0----0--0----0--0---|----0--0--0---0----0--0----0--0---|----0--0--0---0----0--0----0--0---|
B|-----1---1----------1--------1----|-----1---1----------1--------1----|-----1---1----------1--------1----|
E|----------------------------------|----------------------------------|----------------------------------|

E|-----------------0-------0--------|
A|--3---------3---------------------|
D|----------------------------------|
G|----0--0--0---0----0--0----0--0---|
B|-----1---1----------1--------1----|
E|----------------------------------|

Intro: C  G  Am7  Fmaj9

C
  No i'm never gonna leave you darling
G
  No i'm never gonna go regardless
Am7                        Fmaj9
  Everything inside of me, is living in your heartbeat
C
  Even when all the lights are fading
G
  Even then, if your hope was shaking
Am7          Fmaj9
    I'm here holding on

C                      Am7
I will always be yours forever and and more
C           Dm7          G
Through the push and the pull
C
I still drown in your love
Am7
And drink 'til i'm drunk
C       Dm7         G   C
And all that i've done, is it ever enough?

C
  I'm hanging on a line here baby
G
  I need more than ifs and maybes
Am7
   We'll come down from the highest heights
Fmaj9
   Still searching for the reason why
C
  And now i know what it's like,
G
  Reaching from the other side
Am7               Fmaj9
   After all that i've done

C                      Am7
I will always be yours forever and and more
C           Dm7          G
Through the push and the pull
C
I still drown in your love
Am7
And drink 'til i'm drunk
C       Dm7         G   C
And all that i've done, is it ever enough?

C
For all that it's worth, is it worth it? 
G
Cause more than it's hard to desert it
C
For all that it's worth, is it worth it?
G
How do we know without searching?

(Intro)
I will write you this song to get back what's ours

Would that be enough?
                  Am7
I will always be yours forever and and more
C           Dm7          G
Through the push and the pull
C
I still drown in your love
Am7
And drink 'til i'm drunk
C       Dm7         G   C
And all that i've done, is it ever enough?

C
For all that it's worth, is it worth it? Is it ever enough?
G
How could we know without searching?

Is it ever enough?
Composição de Nick Santino
Colaboração e revisão:
  • Líliam Camargo
1.314 exibições
    • ½ Tom
    • A
    • Bb
    • B
    • C
    • Db
    • D
    • Eb
    • E
    • F
    • F#
    • G
    • Ab
  • Adicionar à lista

    0 comentários

    Ver todos os comentários

    Conseguiu tocar?

    0 Tocaram 0 Ainda não

    Grave um vídeo tocando Ever Enough e nos envie!

    00:00 / 00:00
    Outros vídeos desta música
    Repetir Qualidade Automático
    Outros vídeos desta música
    00:00 / 00:00
    Automático

    Cifra Club Pro

    Aproveite o Cifra Club com benefícios exclusivos e sem anúncios
    Cifra Club Pro
    Aproveite o Cifra Club com benefícios exclusivos e sem anúncios
    OK