Cifra Club

Withered

A Static Lullaby

Cifra: Principal (violão e guitarra)
exibições 658
Tom: A#
Tabbed by Al

Intro:

g1 x8 x4 x4 x8 x8 x8 x8 x8 x8 x8 x8                             x8
e|------------------------------------------------------------------|
B|------------------------------------------------------------------|
G|-3--3--12-14-14-15-12-15-14-10-10-10/-12-12-12-12-10/-12-12---12--|
D|-x--x--x--x--x--x--x--x--x--x--x--x-/-x--x--x--x--x-/-x--x----x---|
A|-1--1--10-12-12-13-10-13-12-8--8--8-/-10-10-10-10-8-/-10-10---10--|
D|------------------------------------------------------------------|

g2
e|-------------------------------------|
B|-------------------------------------|
G|-------------------------------------|
D|-11111111-11111111-5555555-55555555--|
A|-11111111-11111111-5555555-55555555--|
E|-11111111-11111111-5555555-55555555--|
   pm.....  ........ ....... ........

g2 x2        x2       x2       x2       x24
e|-------------------------------------------------------|
B|-------------------------------------------------------|
G|-------------------------------------------------------|
D|-111111111-55555555-11111111-88888888-10-1010101010-0--|
A|-111111111-55555555-11111111-88888888-10-1010101010-0--|
D|-111111111-55555555-11111111-88888888-10-1010101010-0--|

Verse:

x2
g1 x8 x8 x8 x8
e|-------------|
B|-------------|
G|-------------|
D|-1--1--5--5--|
A|-1--1--5--5--|
D|-1--1--5--5--|

g2 x8 x8 x8 x8 x8
e|----------------|
B|----------------|
G|-8--8--12-12-8--|
D|-8--8--12-12-8--|
A|-6--6--10-10-6--|
D|----------------|

pre chorus:

g1 x8 x8 x8 x8 x8 x8 x8 x5
e|----------------------------|
B|----------------------------|
G|----------------------------|
D|-1--1--8--8--3--3--3--3--0--|
A|-1--1--8--8--3--3--3--3--0--|
D|-1--1--8--8--3--3--3--3--0--|

g2 x8 x8 x8 x8 x8 x8 x5
e|-------------------------|
B|-------------------------|
G|-8--15-15-10-10-10-10----|
D|-8--15-15-10-10-10-10-0--|
A|-6--13-13-8--8--8--8--0--|
D|----------------------0--|
chorus:

x4
g1 x8 x5    x8 x8
e|----------------|
B|----------------|
G|----5-----------|
D|-1--x--3--5--5--|
A|-1--3--3--5--5--|
E|-1-----3--5--5--|

   x8 x4  x4 x8 x8 x8 x8 x7
e|------------------------------|
B|------------------------------|
G|-3--3-/-12-14-14-15-12-14-15--|
D|-x--x-/-x--x--x--x--x--x--x---|
A|-1--1-/-10-12-12-13-10-12-13--|
D|------------------------------|

g2 w/ effect of somesort x4
e|-3/5/3-5/6/5--|
B|--------------|
G|--------------|
D|--------------|
A|--------------|
D|--------------|

   x2        x2
e|---------------------|----|
B|---------------------|----|
G|--------------------.|----|
D|-111111111-55555555-.|-1--|
A|-111111111-55555555--|-1--|
D|-111111111-55555555--|-1--|

Rest

bridge:

comes in after g2
g1 x8 x8 x8 x8 x8 x8 x8 x5
e|----------------------------|
B|----------------------------|
G|----------------------------|
D|-1--1--8--8--10-10-10-10-0--|
A|-1--1--8--8--10-10-10-10-0--|
D|-1--1--8--8--10-10-10-10-0--|
   pm..

g2
e|--------------|
B|--------------|
G|--------------|
D|-1~-5~-1~-5~--|
A|-1~-5~-1~-5~--|
D|-1~-5~-1~-5~--|

   x8 x8 x8 x8 x8 x8 x5
e|-------------------------|
B|-------------------------|
G|-8--15-15-10-10-10-10----|
D|-8--15-15-10-10-10-10-0--|
A|-6--13-13-8--8--8--8--0--|
D|----------------------0--|

chorus:

x4
g1 x8 x5    x8 x8
e|----------------|
B|----------------|
G|----5-----------|
D|-1--x--3--5--5--|
A|-1--3--3--5--5--|
E|-1-----3--5--5--|

g2 w/ effect of somesort x4
e|-3/5/3-5/6/5--|
B|--------------|
G|--------------|
D|--------------|
A|--------------|
D|--------------|

breakdown:

x2
g1
e|-----------------------------------------|
B|-----------------------------------------|
G|-----------------------------------------|
D|-111-00--111-00-111-0-11111111-11111111--|
A|-111-00--111-00-111-0-11111111-11111111--|
D|-111-00--111-00-111-0-11111111-11111111--|

e|------3333
Acordes para:
    Composição: A Static Lullaby

    0 comentários

    mostrar mais comentários

    Conseguiu tocar?

    0tocaram0ainda não

    Grave um vídeo tocando Withered e mande pra gente!

    00:00 / 00:00
    outros vídeos desta música
    repetirqualidadeAutomático
    Outro vídeos desta música
      00:00 / 00:00
      OK