Cifra Club

Aprenda

Iko Iko

Aaron Carter

Cifra: Principal (violão e guitarra)
tom: Bb
   E|-----1------------------------------------------
   B|-3-4---1---1-3-4-------1-3-4-3-1----------------
   G|-----------------3---3--------------------------
   D|------------------------------------------------
   A|------------------------------------------------
   E|------------------------------------------------

   E|-----1-----5-6-5-3------------------------------
   B|-3-4---1-------------1-3-4-3-1------------------
   G|-------------------3------------3-2-3-----------
   D|------------------------------------------------
   A|------------------------------------------------
   E|------------------------------------------------

My Gramma and your Gramma
Sittin' by the fire
My Gramma said to your Gramma
"I'm gonna set your flag on fire"

Chorus
Talkin''bout...
Hey now! Hey now!
Iko, Iko, unday
Jockamo feeno ai nané
Jockamo fee nané

Look at my king all dressed in red
Iko, Iko, unday
Betcha five dollars he'll kill you dead
Jockamo fee nané

Chorus
My flag boy and your flag boy
Sittin' by the fire
My flag boy said to your flag boy
"I'm gonna set your flag on fire"

Chorus

Iko!

Chorus

See that guy all dressed in green
Iko, Iko, unday
He's not a man, he's a lovin' machine
Jockamo fee nané

Chorus x2
Composição de James Sugarboy Crawford / Jesse Thomas / Jörgen Elofsson / Marilyn Jones
Colaboração e revisão:
  • roberto braick
2.190 exibições
    • ½ Tom
    • A
    • Bb
    • B
    • C
    • Db
    • D
    • Eb
    • E
    • F
    • F#
    • G
    • Ab
  • Adicionar à lista

    0 comentários

    Ver todos os comentários

    Conseguiu tocar?

    0 Tocaram 0 Ainda não

    Grave um vídeo tocando Iko Iko e nos envie!

    00:00 / 00:00
    Outros vídeos desta música
    Repetir Qualidade Automático
    Outros vídeos desta música
    00:00 / 00:00
    Automático

    Cifra Club Pro

    Aproveite o Cifra Club com benefícios exclusivos e sem anúncios
    Cifra Club Pro
    Aproveite o Cifra Club com benefícios exclusivos e sem anúncios
    OK