Cifra Club

Mundo

Abril

Cifra: Principal (violão e guitarra)
Tom: G
      C                      D
E|--------------------------------------------------------------|
B|--------------0-----------------------0-----------------------|
G|---------0--------0--------------0---------0------------------|
D|-----2---------------2-------4-----------------4--------------|
A|2~3---------------------3~5-----------------------------------|
E|--------------------------------------------------------------|

      Em            F#               G                Em
E|---------------------------------------------------------------|
B|----------0---------------0-----------------0-------------0----|
G|---------------------------------------------------------------|
D|-----5----------------7----------------9--------------5--------|
A|5~7-------------7~9-------------9~10--------------7------------|
E|---------------------------------------------------------------|

       C                    D                              Em
E|-------------------------------------------------------0-------|
B|--------------0-----------------------0----------------0-------|
G|---------0--------0--------------0---------0-----------0-------|
D|-----2---------------2-------4-----------------4-------2-------|
A|2~3---------------------3~5----------------------------2-------|
E|-------------------------------------------------------0-------|

C D
Eu me perdi
Em F#m G Em
Por querer viver
C D
Às vezes acho que não sou daqui
Em F#m G Em
Não tente me entender
C D Bm7
Não pense que eu fui tão bom assim pra você
Em
Ninguém enxerga através de mim
A7 D Eb°
Eu desço a rua olhando pro lado pra ver
A Em
Se o mundo ainda é igual ao meu
Se o meu nome ainda está ao lado do teu
Se o mundo ainda é igual ao meu
Se o meu nome ainda está ao lado do teu
C D Em

C D
Eu não sorri
Em F#m G Em
E não me deixei chorar
C D
Mas não pense que eu não sofri
Em F#m G Em
Por viver sem tentar
C D
E quando penso em tudo que perdi
Bm7 Em
Por não dizer o que eu queria
A7 D D Eb°
Eu desço a rua olhando pro lado pra ver

A Em
Se o mundo ainda é igual ao meu
Se o meu nome ainda está ao lado do teu
 Se o mundo ainda é igual ao meu
Se o meu nome ainda está ao lado do teu
F#7 G
Tente entender
F#7 G
Que ainda vivo tão sozinho
A
E te ver assim
Bb°
Me faz esquecer
Bm A G
Tudo o que eu não quero mais
Dm G
Então eu vou
C Bm Am
Sozinho a caminhar
Dm G
E sem destino eu vou
C C/B Am
Tentando te encontrar
Em
Pra te dizer
A
Que eu
D  D/C#  Bm
Preciso me achar
G
Pra viver
A 
Sem me perder

( C D Em F#m G Em )
( C D Em F#m G E )

A Em
O mundo não é mais o meu...
exibições 75.566
Acordes para:
    Composição: Rodrigo Tavares Colaboração e revisão:
    • misael pastel
    • Glauber
    • Daniel Araujo

    0 comentários

    mostrar mais comentários

    Conseguiu tocar?

    9 tocaram 0 ainda não

    Grave um vídeo tocando Mundo e mande pra gente!

    00:00 / 00:00
    outros vídeos desta música
    repetir qualidade Automático
    Outros vídeos desta música
    00:00 / 00:00
    Automático
    OK