Cifra Club

Noite

Abril

Cifra: Principal (violão e guitarra)
tom: G
E|-7-7-9-10-9-7--7-----| 
B|-7-7--------7--9-----| 2x
G|-7-7--------7--7-----|

E|-------------------------------------------------|
B|-------------------------------------------------|
G|--444~6--6~7--7~9--9~11--11~9--9~7--7~9--9~~-----| 4x
D|------------------------------------------~~-----|  
A|--222~4--4~5--5~7--7~9---9~7---7~5--5~7--7~~-----|
E|-------------------------------------------------|
(é fácil de pegar o tempo escutando a música, e também é bem legal fazer no violão)


 Bm / F#m / E
caiu a noite tão depressa                   |
e eu ali parado, esperando a música parar   |--> e|--7---------|    na guitarra,
era uma noite dessas                        |    B|-----10--9--|    faça essas notas
e eu pesando, porque fui te encontrar?      |    G|------------|    várias vezes.
flores atiradas na calçada                           
um adeus tão frio e mais nada                        
seja como for                               
se hoje eu não te tenho mais                
ter tudo não me satisfaz                    

D
e se eu não fui bom nisso
A
se eu não soube te fazer feliz
Bm / A / G / F#m
você foi um vício

levou a minha paz...

 Bm / F#m / E
e no final da festa              |
teu olho verde não mentia mais   |--->  e|------9--10--|  nesse segundo verso,
e o que me resta                 |      B|---7---------|  muda as notas. ATENÇÃO!
é ir embora.. é ir emboraaaaa    |      G|-------------|

Bm     F#m         E                      G
Uma história muito mal contada - página virada

       Bm               A     G
Aonde foi que eu encontrei você?

          A        A#°
Yeah yeah yeahhh - ooo oooo ooooo

Bm / F#m / E
se hoje eu não te tenho mais
ter tudo não me satisfaz
e se eu não fui bom nisso
se eu não soube te fazer feliz
você foi um vício...

Solo:
                                    
E|-----------------------------------------------------------------------------------
B|-14p12-14b15-14-12-14-14b15-12~---14p12-14b15-14-12-14-14b15-12~-------15----------
G|------------------------------------------------------------------15b17---15b17-15-

E|--------------------------------------------------------------------|
B|---17-15-14----14---17/19-20-19-15-15-17~---15-14-15~---11-11-12~~--|
G|-15----------15--15-------------------------------------------------|

00:00 / 00:00
Outros vídeos desta música
Repetir
Outros vídeos desta música
Composição de Rodrigo Tavares
Colaboração e revisão:
52.624 exibições
    • ½ Tom
    • A
    • Bb
    • B
    • C
    • Db
    • D
    • Eb
    • E
    • F
    • F#
    • G
    • Ab
  • Adicionar à lista

    0 comentários

    Ver todos os comentários

    Entre para oCifra Club PRO

    Tenha acesso a benefícios exclusivos no App e no Site

    • Chega de anúncios

    • Prioridade de compra em lançamentos

    • Mais recursos no app do Afinador

    • Atendimento Prioritário

    • Descontos nos produtos Cifra Club

    • Ajude a produzir mais conteúdo

    00:00 / 00:00

    Cifra Club Pro

    Aproveite o Cifra Club com benefícios exclusivos e sem anúncios
    Cifra Club Pro
    Aproveite o Cifra Club com benefícios exclusivos e sem anúncios
    OK