Cifra Club

Partindo

Abril

Cifra: Principal (violão e guitarra)
tom: F
(intro)  Em A

( Em A )
Espero que você
Saiba tudo e não se lembre de me esperar
Não quero te dizer
Que a jogada não repete, que pode perder
Não posso te prender
Pelos crimes que acabo de te condenar
Só quero que você
Saiba se eu partir agora eu posso te esquecer

( Dm C Bb A )
Então se for assim
Se eu nunca mais voltar
O que vai acontecer com você, quem você vai chamar?
A vida teve um fim
As mentiras que eu não quis te contar
Não consegue perceber?
Parto pra nunca mais voltar

(intro 2x) Em A 

( Em A )
Espero que você
Saiba tudo e não se lembre de me esperar
Não quero te dizer
Que a jogada não repete, que pode perder
Não posso te prender
Pelos crimes que acabo de te condenar
Só quero que você
Saiba se eu partir agora eu posso te esquecer

( Dm C Bb A )
Então se for assim
Se eu nunca mais voltar
O que vai acontecer com você, quem você vai chamar?
A vida teve um fim
As mentiras que eu não quis te contar
Não consegue perceber?
Parto pra nunca mais voltar

E\--------------------------------------------------------
B\--------------------------------------------------------
G\--------------------------------------------------------
D\--------------------------------------------------------
A\----2---5----7----7----5---2---2----5---7----5---7------
E\----0----3---5----5----3---0---0----3---5----3---5------

E\----------------------------------------------------------------
B\----------------------------------------------------------------
G\-----------------------9--7-------------------------------------
D\-----------------------------9--7-------------------------------
A\-----2---5----7------------------------2----2-----5---7---5---7--
E\-----0---3----5------------------------0----0-----3---5---3---5--

( Em D C B )
Então se for assim
Se eu nunca mais voltar
O que vai acontecer com você, quem você vai chamar?
A vida teve um fim
As mentiras que eu não quis te contar
Não consegue perceber?
Parto pra nunca mais voltar.

( Em A )
(Espero que você...)
(Só quero te dizer...)
00:00 / 00:00
Outros vídeos desta música
Repetir
Outros vídeos desta música
Composição de Rodrigo Tavares
Colaboração e revisão:
  • duda brum
10.835 exibições
    • ½ Tom
    • A
    • Bb
    • B
    • C
    • Db
    • D
    • Eb
    • E
    • F
    • F#
    • G
    • Ab
  • Adicionar à lista

    0 comentários

    Ver todos os comentários

    Entre para oCifra Club PRO

    Tenha acesso a benefícios exclusivos no App e no Site

    • Chega de anúncios

    • Prioridade de compra em lançamentos

    • Mais recursos no app do Afinador

    • Atendimento Prioritário

    • Descontos nos produtos Cifra Club

    • Ajude a produzir mais conteúdo

    00:00 / 00:00

    Cifra Club Pro

    Aproveite o Cifra Club com benefícios exclusivos e sem anúncios
    Cifra Club Pro
    Aproveite o Cifra Club com benefícios exclusivos e sem anúncios
    OK