Cifra Club

Aprenda

Ballbreaker

AC/DC

Cifra: Principal (violão e guitarra)
Tom: A
guitar 1
E|------------------|-------------------|-------------------|---------------|---------------||
B|--3--2----2--0----|---2--0------------|---3--2----2--0----|---2--0--------|---------------||
G|--4--2----2--0----|---2--0------------|---4--2----2--0----|---2--0---1----|--------------.||
D|------------------|----------2--------|-------------------|----------2----|--------------.||
A|------------------|----------2--------|------0----0--0----|---0------2----|---------------||
E|------------------|----------0--------|-------------------|------3---0----|---------------||

guitar 2
E|------------------|-------------------|-------------------|---------------|---------------||
B|------------------|-------------------|---3--2----2--0----|---2-----------|---------------||
G|------------------|-------------------|---4--2----2--0----|---2-----------|--------------.||
D|------------------|-------------------|-------------------|------5---2----|--------------.||
A|------------------|-------------------|---2--0----0-------|---0--5---2----|---------------||
E|------------------|-------------------|--------------3----|------3---0----|---------------||


Main Riff

guitar 1
        E--------3-------------|
        B--------3-------------|
        G--------0-------------|
        D---2-2--0----2--------|
        A---2-2-------2--------|
        E---0-0--3----0--------|  \
Guitar 2                         >Repeat
        E--------3-------------|  /
        B--------3-------------|
        G--------0-------------|
        D---0-0--0----2--------|
        A---0-0-------2----x-x-|
        E---0-0--3----0----x-x-|

             pm..
E|--------------------3------------------------------                                           
B|--------------------3------------------------------                                           
G|---------------.----0------------------------------                                           
D|--2-----2----2--2---0----------2-------------------                                    
A|--2-----2----2--2--------------2--------------x----                                    
E|--0-----0----0--0---3----------0--------------x----                                     
   "when bang on nine      and im dead on time"

PRE CHORUS
Guitar 1
E|-----3--3--3--3--2------2---------------------                                                
B|-----3--3--3--3--3------3---------------------                                                 
G|-----0--0--0--0--2------2----2--2-------------                                                
D|-----0--0--0--0--0------0----2--2---2--2------                                                
A|-----------------0-----------0--0---2--2------                                                
E|-----3--3--3--3---------------------0--0------  \                                             
Guitar 2            pm.                            >Repeat
E|----------------------------------------------  /                                              
B|-----0--0--0--0--3------3---------------------                                                
G|-----0--0--0--0--2---.--2------2--------------                                                
D|-----0--0--0--0--0---x--0------2----2--2------                                                
A|---------------------x------0--0-x--2--2------                                                
E|-----3--3--3--3-------------0----x--0--0------                                                
                        "open up the door"  

Guitar 1
---3--3--3--3---2-----------2----3----2----3---------                                   
---3--3--3--3---3-----------3----3----3----3---------                                    
---0--0--0--0---2-----------2----2----2----2---------                                  
---0--0--0--0---0-----------0----0----0----0---------                                      
-----------------------------------------------------                                   
---3--3--3--3----------------------------------------                                  
Guitar 2
----------------2-----------2---------2--------------                                    
---0--0--0--0---3-----------3----3----3----3---------                                    
---0--0--0--0---2-----------2----0----2----0---------                                   
---0--0--0--0---0-----------0----0----0----0---------                                     
-----------------------------------------------------                                   
---3--3--3--3--------------------3---------3---------                                   
                      "living our her dreams....."
CHORUS
guitar 1
        E--------3-------------|        |---------3---------------                  
        B--------3-------------|        |---------3---------------                  
        G--------0-------------|        |---------0---------------                   
        D---2-2--0----2--------|        |----2-2--0-----2---2-2---                    
        A---2-2-------2--------|        |----2-2--------2---2-2---                     
        E---0-0--3----0--------|  \     |----0-0--3---0-0---0-0---   \                
Guitar 2                         >x2                                Repeat
        E--------3-------------|  /     |-------------------------   /             
        B--------3-------------|        |---------0---------------                   
        G--------0-------------|        |---------0-----1---------              
        D---0-0--0----2--------|        |----0-0--0---0-2---2-2---                
        A---0-0-------2----x-x-|        |----0-0------0-2---2-2---                   
        E---0-0--3----0----x-x-|        |----0-0--3---0-0---0-0---                   

SOLO



RTHYEM
E|---------------------------
B|---------------------------
G|----5------2-----2---------
D|----5---0--2-----2---------
A|----3---0--0-----0---0--0--                                                                   
E|--------0------------0--0--                                                                   

E|------8-----------------------------------------------------5--------------------5-----------|
B|--10~~------------7b-r------------------------------------5-----7~~~~~~--5----8b---8b~~~~~~--|
G|------------------7b-r--5-------x--8b-8b-8b--8b--8--8b--7-----8-7~~~~~~--5-------------------|
D|----------x\x-------------7~~~--x-------------------------------------------7----------------|
A|----------x\x--------------------------------------------------------------------------------|
E|---------------------------------------------------------------------------------------------|
                                                 pm.                      .
E|--5-5-0-5-----------8b--8-5------------------------------------------------------------------|
B|----------8b-8b-8-5---------8-5--------------5-----------------------------------------------|
G|--------------------------------7b--7-5-7~~~~5--.---5~~~~~~-------------.--------------------|
D|------------------------------------------------7-.-5~~~~~~-7-5-7~~~~~~-7--------------------|
A|--------------------------------------------------7------------------------------------------|
E|---------------------------------------------------------------------------------------------|

Rythem
*---------------------------------------------------------------------------------------
*---------------------------------------------------------------------------------------
*----------7-----7--5-------7---5-------2------2----------5-------2------2----------5---
*----5-----7-----7--5-------7---5-------2------2----------5---0---2------2----------5---
*----5-----5-----5--3---0---5---3---0---0------0---0--0---3---0---0------0---0--0---3---
*----3-----5-----5------0-----------0--------------0--0-------0--------------0--0-------

E|--------------------------------------------------------------------8-~~~~-------8b~~8~~8~~--|
B|-----------7-----------------------------------------------10~~~~~~~10~~~~10~~~~-8b~~8~~8~~--|
G|----7b-r^5-7^5---------5---5^2^0-4br--2-------------------x----------------------------------|
D|---x-----------7~~~~~-\5----------------4-2-x-7---\----\x/-----------------------------------|
A|--x------------------------------------------------------------------------------------------|
E|---------------------------------------------------------------------------------------------|

*---------------------------------------------------------------------------------------------|
*---------------------------------------------------------------------------------------------|
*------2-----2--------------7-------5-------7---5-------2-------------------------------------|
*---0--2-----2----------5---7---0---5-------7---5-------2-------------------------------------|
*---0--0-----0---5--5---5---5---0---3---0---5---3---0---0-------------------------------------|
*---0------------3--3---3---5---0-------0---5-------0-----------------------------------------|
                                               tremelo
E|---------------------------------------------------------------------------------------------|
B|-10-10-13~~13-10-13-10-13-10-13-10-13-10-13-(10^13)----------------10\-----------------------|
G|------------------------------------------------------------------------7/-------------------|
D|---------------------------------------------------------------------------------------------|
A|---------------------------------------------------------------------------------------------|
E|---------------------------------------------------------------------------------------------|

*-------------------2-----------2---------2--------2-----                                    
*------0--0--0--0---3-----------3----3----3----3---3-----                                    
*--2---0--0--0--0---2-----------2----0----2----0---2-----                                   
*--2---0--0--0--0---0-----------0----0----0----0---0-----                                     
*--0-----------------------------------------------------                                   
*--0---3--3--3--3--------------------3---------3---------  

E|--10-10----------10--x-13b--13-10------------------------------------------------------------|
B|--------13b--13b-----x------------13-10-12------------------10----------------12-13-12--x-x--|
G|----------------------------------------12-12-10---------10-10-----------10---12-13-12--x-x--|
D|------------------------------------------------12~~~~~--10-----12--12-12--------------------|
A|---------------------------------------------------------------------------------------------|
E|---------------------------------------------------------------------------------------------|
                                                    tremelo
E|---------------------------------------------------------------------------------------------|
B|--12b~r-10--------------------13--13--13--13--13-(13=)--------------------------------13---x/|
G|--12b~r-10-12-12b--12b-12b12b-12b-12b-12b-12b-12b(12=)--------------------------------12b--x/|
D|-----------12-------------------------------------tremelo--=-=-===========================---|
A|---------------------------------------------------------------------------------------------|
E|---------------------------------------------------------------------------------------------|

guitar 1
E|---------------------------------------------------------------------------------
B|---/--3--2-----2--0-------------------3--2~~--2--0-----2--0----------------------
G|---/--4--2-----2--0---2--0------------4--2~~--2--0-----2--0------trill-----------
D|-----------------------------------------------------------------(0^2)-----------
A|------------------------------------------------------------------------2^0------
E|---------------------------0----x\------------------------------------------3---0
guitar 2
E|---------------------------------------------------------------------------------
B|------3--2-----2--0---2---------------3--2----2--0-----2--0----------------------
G|------4--2-----2--0---2--0------------4--2----2--0-----2--0----------------------
D|---------------------------2-----------------------------------2-----------------
A|---------------0-----------2-----------------------------------2-----------------
E|---------------------------0-----------------------------------0-----------------
guitar 3 (over dub)
E|------------------------------------------|
B|------------------------------------------|
G|-------0--2----2--0---2--0----------------|
D|-------0--2----2--0---2--0---2------0-----|                                                    
A|----------0----0------0------2------0-----|                                                  
E|-------3----------3------3-0-0------0-----|                                                    

 guitar 1
E|----------------0--0-------------------------------------0-4^0-----4^0-----4^0--0-x-0-0-0-0-0
B|----------------------------------------------------------------0-------0--------------------
G|---------2b----b--b--b------2b--2b--2b---2b--r--0---2b---------------------------------------
D|------------------------------------------------0--------------------------------------------
A|---------------------------------------------------------------------------------------------
E|-----0---------------------------------------------------------------------------------------
           trill
-10b-------10(12)----------------------|
----------------------x\\\\\\\---------|
----------------------x\\\\\\\---------|
----------------------------x\\\\\\\---|
----------------------------x\\\\\\\---|
---------------------------------------|

 guitar two                                                                    let ring
E|----------------------------------------------------------------------------------||--------|
B|------3--2----2--0---------0------------------------3--2----2--0---2---0----------||---0--0-|
G|------4--2----2--0-----2---0------------------------4--2----2--0---2---0----1-----||---0--0-|
D|-----------------------2---0---2-----------------------------------2---0----2-----||---0--0-|
A|-----------------------0-------2-----------------------------------0--------2-----||---0--0-|
E|---------------------------3---0---------------------------------------3----0-----||---0--0-|

back to chorus...ect

outro
E|---------------------------------------------------------------------------------------------|
B|-----------------------------8---/----------------------------------------------------8-8-\--|
G|--x/\/\/---------------------7---/--------------------------7-------------------------7-7-\--|
D|---------------------------------------------------------------------------------------------|
A|----------x--x-x-x-x-x-x-x----------x-x-x-x-x-x-x-x-x-7~~~~~---x-x-x-x-x-x-x-x-x-7~~~~-------|
E|----------x--x-x-x-x-x-x-x----------x-x-x-x-x-x-x-x-x----------x-x-x-x-x-x-x-x-x-------------|
                                      H.O      trill
E|---------------------------------------------------------------------------------------------|
B|----------------------8----8--8---5-0^5-0^5-((5^0))=======================================---|
G|----------------------7----7-----------------------------------------------------------------|
D|---------------------------------------------------------------------------------------------|
A|--x-x-x-x-x-x-x-x-x--------------------------------------------------------------------------|
E|--x-x-x-x-x-x-x-x-x--------------------------------------------------------------------------|
    trill . . . . . . . . . . . . . . . . . . . . . . . . . . . . . . . . . . . . . . 
E|---------------------------------------------------------------------------------------------|
B|-((5^0))-((9^0))-----((10^0))------------((12^0))------------------((18^0-16^0-17^0))--------|
G|---------------------------------------------------------------------------------------------|
D|---------------------------------------------------------------------------------------------|
A|---------------------------------------------------------------------------------------------|
E|---------------------------------------------------------------------------------------------|
       tremelo
E|---------------------------------------------------------------------------------------------|
B|--x-15=====----=========---==================---15-14----14---------14----------------12-----|
G|--x-16=====----=========---==================---16-14----14-12------14b-12b-----------12-----|
D|----------------------------------------------------------------14----------14-14~~~---------|
A|---------------------------------------------------------------------------------------------|
E|---------------------------------------------------------------------------------------------|

E|------------------------------------------------------------------------------------------12-|
B|------15-15-14---------------------------------15-b-b-b-b-b-b-b-b-b-b-b-b-b-b-b-b-b-b-b-\----|
G|--14/-16-16-14~14~14-12------14-12---------12------------------------------------------------|
D|----------------------------x-------14~~~~---------------------------------------------------|
A|---------------------------x--------0--------------------------------------------------------|
E|---------------------------------------------------------------------------------------------|
                        p.m . .
E|---------------------------------------------------------------------------------------------|
B|--15-14~~~14-12-----------------------------------------------------------------14-12\-------|
G|--16-14~~~14-12--14b-------.----12------------------------------------/16-14~~~-14-12\-------|
D|---------------------14-.--12-.-12-.---------------------------9~~~~~~-----------------------|
A|------------------------14----14---14--11~~~~~~--/14-12~~~~~12~10~~~~~-----------------------|
E|---------------------------------------------------------------------------------------------|

*|--------------------------------------------|--------------------------------------------     
*|--------------------------------------------|----3--2-------2--0-------3--2------2--0----     
*|--------------------------------------------|----4--2-------2--0-------4--2------2--0----     
*|--------------------------------------------|----0--2---2---2--0-------0--2------2--0----     
*|--------------------------------------------|----0--0---0---0------0---0--0------0-------     
*|--------------------------------------------|------------------3---0----------------3----   

E|-----------------------------------------------------------------/x\--------------------------|
B|-----------------------------------------------------------------/x\--------------------------|
G|----------------4~~~~~~~~~~~~~~~~~~~~~~~~~~~~~~~~~~~~~~~~~~~~~~~~/x\--------------------------|
D|----------------5~~~~~~~~~~~~~~~~~~~~~~~~~~~~~~~~~~~~~~~~-----------/x\-/x\-/x\-/x\-----------|
A|-------4----4-------------------------------------------------------/x\-/x\-/x\-/x\-----------|
E|---/7--5----5-------------------------------------------------------/x\-/x\-/x\---------------|

*|----------------3-----------------------------------------------------------------------------|
*|----3--2----2---3--------------------------------0--------------------------------------------|
*|----4--2----2---0--------------------------------0--------------------------------------------|
*|----0--2----2---0--------------------------------0----2-------------------------------2-2-2---|
*|----0--0----0--------------------------2--2--2--------2-------------------------------2-2-2---|
*|----------------3----------------------0--0--0---3----0-------------------------------0-0-0---|
Composição de Angus Young / Malcolm Young
16.068 exibições
    • ½ Tom
    • A
    • Bb
    • B
    • C
    • Db
    • D
    • Eb
    • E
    • F
    • F#
    • G
    • Ab
  • Adicionar à lista

    0 comentários

    Mostrar mais comentários

    Conseguiu tocar?

    1 Tocaram 0 Ainda não

    Grave um vídeo tocando Ballbreaker e mande pra gente!

    00:00 / 00:00
    outros vídeos desta música
    repetir qualidade Automático
    Outros vídeos desta música
    00:00 / 00:00
    Automático
    OK