Cifra Club

Aprenda

Can't Stop Rock N' Roll

AC/DC

Cifra: Principal (violão e guitarra)
Tom: G
   Intro:
    A5   G5   D5   C5   A5 C5       A5
e|--------------------------------------------------------------------|
B|--------------------------------------------------------------------|
G|------------7----5-------5--------2--2--2--2-2-2--2--2--2--2-2-2----|
D|--7----5----7----5----7--5--------2---------------------------------|
A|--7----5----5----3----7--3--------0---------------------------------|
E|--5----3--------------5---------------------------------------------|


e|-----------------------------------------------|
B|-----------------------------------------------|
G|--2--2--2--0-0-0-------------------------------| (4x)
D|--x--x--x---------2-2-2-0-0-0--0--0-0--0--0----|
A|--0--0--0---------0----------------------------|
E|-----------------------------------------------|



   Riff 1:
    A5 G5   D5 C5   A5 C5
e|--------------------------|
B|--------------------------|
G|----------7--5-------5----|
D|--7--5----7--5----7--5----|
A|--7--5----5--3----7--3----|
E|--5--3------------5-------|
                          Don't you give me no line (...)



   Riff 2:
    F5          A5          F5     G5      A5
e|----------------------------------------------------------------|
B|----------------------------------------------------------------|
G|----------------------------------------------------------------|
D|--3--3--------7--7--------3-3----5--5----7--7-------------------|
A|--3--3--------7--7--------3-3----5--5----7--7-------------------|
E|--1--1--------5--5--------1-1----3--3----5--5-------------------|
       Don't you (...)



   Riff 3: (refrão)
e|-----------------------------------------------|
B|-----------------------------------------------|
G|--2--2--2--0-0-0-------------------------------|
D|--x--x--x---------2-2-2-0-0-0--0--0-0--0--0----|
A|--0--0--0---------0-0-0---0------------0-------|
E|-----------------------------------------------|
You can't stop rock n' roll (...)



   Solo do final:
e|---------------------------------------------------------------------|
B|--8/10~--10p8h10-p8-----------0-7b8b7b8---------------18\\\\---------|
G|---------------------9p7h9-p7---7b8b7b8--0-5--x-5-0------------0--2--|
D|-----------------------------------------0-5--x-5-0------------0--2--|
A|------------------------------------------------------------------0--|
E|---------------------------------------------------------------------|
                                                        Slide com
                                                         palheta



   Letra:


 A5 G5   D5 C5   A5 C5
                        Don't you give me no line
 A5 G5   D5 C5   A5 C5
                        Better run if you can
 A5 G5   D5 C5   A5 C5
                    Just like a thorn in the side
 A5 G5   D5 C5   A5 C5
                    So don't give me no


 F5                      A5
    Don't you give me no    Don't you give me no
 F5           G5         A5
    Don't you give me no lies


(Refrão)
      (Riff 3)
  You can't stop rock n' roll
      (Riff 3)
  You can't stop rock n' roll


 A5 G5   D5 C5   A5 C5
                        Don't you play me no jive
 A5 G5   D5 C5   A5 C5
                        A bit of fun on the side
 A5 G5   D5 C5   A5 C5
                        Too much crap make you blind
 A5 G5   D5 C5   A5 C5
                    So don't give me no


 F5                      A5
    Don't you give me no    Don't you give me no
 F5           G5         A5
    Don't you give me no lies


(Refrão)
      (Riff 3)
  You can't stop rock n' roll
      (Riff 3)
  You can't stop rock n' roll
      (Riff 3)
  You can't stop rock n' roll
      (Riff 3)
  You can't stop rock n' roll

         A5 C5 D5
 I said, ah ah ah
 A5 C5 D5
 Ah ah ah
 A5 C5 D5
 Ah ah ah


(Solo)


(Refrão)
      (Riff 3)
  You can't stop rock n' roll
      (Riff 3)
  You can't stop rock n' roll
      (Riff 3)
  You can't stop rock n' roll
      (Riff 3)
  You can't stop rock n' roll

               (Riff 3)
  Listen up... Ah ah ah
  (Riff 3)
  Ah ah ah

      (Riff 3)
  You can't stop rock n' roll
      (Riff 3)
  You can't stop rock n' roll
             A5    G5   C5  D5        G5
  I said you can't stop rock n' roll
                               G5
  You can't stop rock n' Roll
Composição de Angus Young / Malcolm Young
14.942 exibições
    • ½ Tom
    • A
    • Bb
    • B
    • C
    • Db
    • D
    • Eb
    • E
    • F
    • F#
    • G
    • Ab
  • Adicionar à lista

    0 comentários

    Mostrar mais comentários

    Conseguiu tocar?

    5 Tocaram 1 Ainda não

    Grave um vídeo tocando Can't Stop Rock N' Roll e mande pra gente!

    00:00 / 00:00
    outros vídeos desta música
    repetir qualidade Automático
    Outros vídeos desta música
    00:00 / 00:00
    Automático
    OK