Cifra Club

Aprenda

Cliffs

AC/DC

Tab de baixo: Principal
(intro)

(parte 1)
G|-------------------------------|
D|-------------------------------|
A|----------------------5---4----|
E|-0-----2-----3-----------------|

G|----------------------------------|
D|----------------------------------|
A|----------------------------------|
E|-0-----2-----3--------3-4-5-6-7-7-|

G|--------------------------------|
D|----------------------7---x-----|
A|----------------------5---4---2-|
E|-0-----2-----3------------------|

G|--------------------------------|
D|--------------------------------|
A|--------------------------------|
E|-0-----2-----3--------4-5-6-6-7-|

G|-------------------7\6----------|
D|-------------------------5/6----|
A|-----------------------7-----5--|
E|-0-----2-----3------------------|

G|-------------------------4-3---3-2---|
D|----------------------/4----/3-------|
A|-----------------------------------5-|
E|-0-----2-----3-----------------------|

G|-------------------------4-----------|
D|----------------------/4---2---7-----|
A|-----------------------------5---5-4-|
E|-0-----2-----3-----------------------|

G|-------------------------------------|
D|-------------------------------------|
A|-------------------------------------|
E|-0-----x-2-3-----0-0-0---0-0-0-0-0-0-|

(parte 2)
G|-------------x-7/9-|
D|-------------x-7/9-|
A|-------------x-5/7-|
E|-0---2~~~3---------|

G|-------------------|
D|-------------------|
A|-------------------|
E|-0---2~~~3---x-5-3-|

G|---------------7-----|
D|---------------7-----|
A|---------------5-4-2-|
E|-0---2~~~3-----------|

G|-------------------|
D|-------------------|
A|-------------------|
E|-0---2~~~3-----5-3-|

G|-------------7---6-|
D|-------------7---6-|
A|-------------5---4-|
E|-0---2~~~3---------|

G|-------------------|
D|-------------------|
A|-------------------|
E|-0---2~~~3-----5-3-|

G|----------------------|
D|---------------2------|
A|----------------------|
E|-0---2-0-3-------0----|
Colaboração e revisão:
  • Paulo Ricardo
132 exibições

0 comentários

Mostrar mais comentários

Conseguiu tocar?

0 Tocaram 0 Ainda não

Grave um vídeo tocando Cliffs e mande pra gente!

00:00 / 00:00
outros vídeos desta música
repetir qualidade Automático
Outros vídeos desta música
00:00 / 00:00
Automático
OK