Cifra Club

Aprenda

Cold Hearted Man

AC/DC

Cifra: Principal (violão e guitarra)
Tom: G
  Intro
E|----------------------|-------------------|---------------------|
B|----------------------|-------------------|---------------------|
G|--2------5------------|--4----------------|--7------5-----------|
D|--2------5------0h2---|--5----------------|--7------5------5----|
A|--0------3------------|--5----------------|--5------3------5----|
E|----------------------|--3----------------|----------------3----|

                                        Verse:
|-------------------|------------------|-------------------|------------------|
|-------------------|------------------|-------------------|------------------|
|--2----------------|------------------|--2----------------|------------------|
|--2----------------|------------------|--2----------------|------------------|
|--0----------------|------------------|--0----------------|------------------|
|-------------------|------------------|-------------------|------------------|

|-------------------|------------------|-------------------|------------------|
|-------------------|------------------|-------------------|------------------|
|--5----------------|------------------|-------------------|------------------|
|--5----------------|------------------|--5----------------|------------------|
|--3----------------|------------------|--5----------------|------------------|
|-------------------|------------------|--3----------------|------------------|

|--------------------|--------------------|-------------------|
|--------------------|--------------------|-------------------|
|--5------7----------|---------2----------|--2----------------|
|--5------7----------|--5------2----------|--2----------------|
|--3------5----------|--5------0----------|--0----------------|
|--------------------|--3-----------------|-------------------|

|------------------|-------------------|------------------|-------------------|
|------------------|-------------------|------------------|-------------------|
|------------------|--5----------------|------------------|-------------------|
|------------------|--5----------------|------------------|--5----------------|
|------------------|--3----------------|------------------|--5----------------|
|------------------|-------------------|------------------|--3----------------|

                                           Chorus:
|---------------------|-------------------|----------------------|
|---------------------|-------------------|----------------------|
|--7------5-----------|--2----------------|--2------5------------|
|--7------5------5----|--2----------------|--2------5------0-2---|
|--5------3------5----|--0----------------|--0------3------------|
|----------------3----|-------------------|----------------------|

|-------------------|------------------------|--------------------|
|-------------------|------------------------|--------------------|
|--4----------------|----4--4----4--4--4--4--|--7------6----------|
|--5----------------|----5--5----5--5--5--5--|--7------7----------|
|--5----------------|----5--5----5--5--5--5--|--5------7----------|
|--3----------------|----3--3----3--3--3--3--|---------5----------|

|----------------------|-------------------|------------------------|
|----------------------|-------------------|------------------------|
|--2------5------------|--4----------------|----4--4----4--4--4--4--|
|--2------5------0-2---|--5----------------|----5--5----5--5--5--5--|
|--0------3------------|--5----------------|----5--5----5--5--5--5--|
|----------------------|--3----------------|----3--3----3--3--3--3--|

|--------------------|----------------------|-------------------|
|--------------------|----------------------|-------------------|
|--7------6----------|--2------5------------|-------------------|
|--7------7----------|--2------5------0-2---|--5----------------|
|--5------7----------|--0------3------------|--5----------------|
|---------5----------|----------------------|--3----------------|

                                           after 2nd chorus:
|---------------------|-------------------|-------------------------|
|---------------------|-------------------|-------------------------|
|--7------5-----------|--2----------------|-----------5-------------|
|--7------5------5----|--2----------------|--7-----------5----------|
|--5------3------5----|--0----------------|-----7--7--------7/-9----|
|----------------3----|-------------------|-------------------------|

|----------------------|-------------------------|----------------------|
|----------------------|-------------------------|----------------------|
|--7--------5----------|-----------5-------------|--7--------5----------|
|-----7----------------|--7-----------5----------|-----7----------------|
|--------7-------------|-----7--7--------7/-9----|--------7-------------|
|----------------------|-------------------------|----------------------|
Composição de B. Scott
Colaboração e revisão:
  • matheus
3.669 exibições
    • ½ Tom
    • A
    • Bb
    • B
    • C
    • Db
    • D
    • Eb
    • E
    • F
    • F#
    • G
    • Ab
  • Adicionar à lista

    0 comentários

    Mostrar mais comentários

    Conseguiu tocar?

    4 Tocaram 1 Ainda não

    Grave um vídeo tocando Cold Hearted Man e mande pra gente!

    00:00 / 00:00
    outros vídeos desta música
    repetir qualidade Automático
    Outros vídeos desta música
    00:00 / 00:00
    Automático
    OK