Cifra Club

Aprenda

Danger

AC/DC

Cifra: Principal (violão e guitarra)
Tom: C
E------------------|-----------------|
B------------------|-----------------|
G------------------|-----------------|
D--0-0-0-0-0-0-0-0-|-0-0-0-0-0-0-0-0-|
A------------------|-----------------|
E------------------|-----------------|

E------3-3--3-3-3--2-2-2--|
B--3-3-3-3--3-3-3--3-3-3--|
G--2-2-0-0--2-2-2--2-2-2--|
D--0-0-0-0--0-0-0--0-0-0--|
A-------------------------|
E------3-3----------------|

chorus(played 1st without chorus vocals)
E------12^12^12^--3-1-3-0-3-5---------------3-5-3-5--|
B-----------------3-1-3-0-3-5---------------3-5-3-5--|
G-------------------------------12-14-14^------------|
D---/--2--2--2------------------2--2--2--------------|
A--\---2--2--2------------------0--0--0--------------|
E-/----0--0--0----3-1-3-0-3-5---------------3-5-3-5--|REAPEAT WITH 1ST SOLO

riff2
E------------------|--3-3-------|
B------------------|--3-3--3-3--|
G--2---------------|--0-0--2-2--|
D--2---------------|--0-0--0-0--|X2
A--0---------------|------------|
E------------------|--3-3-------|
4.788 exibições
    • ½ Tom
    • A
    • Bb
    • B
    • C
    • Db
    • D
    • Eb
    • E
    • F
    • F#
    • G
    • Ab
  • Adicionar à lista

    0 comentários

    Mostrar mais comentários

    Conseguiu tocar?

    0 Tocaram 0 Ainda não

    Grave um vídeo tocando Danger e mande pra gente!

    00:00 / 00:00
    outros vídeos desta música
    repetir qualidade Automático
    Outros vídeos desta música
    00:00 / 00:00
    Automático
    OK