Cifra Club

Aprenda

Dog Eat Dog

AC/DC

Cifra: Principal (violão e guitarra)
Tom: E
(Malcolm Young, Angus Young & Bon Scott) 
 
Publicado sobre 
 (1977)     
 Live From The Atlantic Studios (1997)     
 
 
Tablatura de guitarra 
 
 Intro:
E|---------------------|------------------|------------------|
B|---------2------3----|------------------|------------------|
G|--1------2------2----|------------------|------------------|
D|--2------2------0----|------------------|------------------|
A|--2------0------0----|------------------|------------------|
E|--0------------------|------------------|------------------|

|------------------|---------------------|------------------|------------------|
|------------------|---------2------3----|------------------|------------------|
|------------------|--1------2------2----|------------------|------------------|
|------------------|--2------2------0----|------------------|------------------|
|------------------|--2------0------0----|------------------|------------------|
|------------------|--0------------------|------------------|------------------|

            Verse:
|----------|-----------------------|------------------------|
|----------|------------------3----|--------------3---------|
|----------|----------2-------2----|--------------2----2----|
|----------|--2-------2-------0----|--------------0----2----|
|----------|--2-------0----0-------|-------------------0----|
|----------|--0----0---------------|--0--0--0--0------------|

|-----------------------|------------------------|-----------------------|
|------------------3----|--------------3---------|------------------3----|
|----------2-------2----|--------------2----2----|----------2-------2----|
|--2-------2-------0----|--------------0----2----|--2-------2-------0----|
|--2-------0----0-------|-------------------0----|--2-------0----0-------|
|--0----0---------------|--0--0--0--0------------|--0----0---------------|

|------------------------|-----------------------|------------------------|
|--------------3---------|------------------3----|--------------3---------|
|--------------2----2----|----------2-------2----|--------------2----2----|
|--------------0----2----|--2-------2-------0----|--------------0----2----|
|-------------------0----|--2-------0----0-------|-------------------0----|
|--0--0--0--0------------|--0----0---------------|--0--0--0--0------------|

Chord Change Up:
|------------------3----|------------------------|------------------3----|
|----------3-------3----|--------------3----3----|----------3-------3----|
|--2-------2-------0----|--------------0----2----|--2-------2-------0----|
|--2-------0-------0----|--------------0----0----|--2-------0-------0----|
|--0----0-------0-------|------------------------|--0----0-------0-------|
|------------------3----|--3--3--3--3--3---------|------------------3----|

                         Chord Change Down:
|------------------------|-----------------------|------------------------|
|--------------3----3----|------------------3----|--------------3---------|
|--------------0----2----|----------2-------2----|--------------2----2----|
|--------------0----0----|--2-------2-------0----|--------------0----2----|
|------------------------|--2-------0----0-------|-------------------0----|
|--3--3--3--3--3---------|--0----0---------------|--0--0--0--0------------|

                                      hey  hey     hey
|-----------------------|------------------------|-----------------------|
|------------------3----|--------------3---------|-----------------------|
|----------2-------2----|--------------2----2----|--4----4--4----4--4----|
|--2-------2-------0----|--------------0----2----|--4----4--4----4--4----|
|--2-------0----0-------|-------------------0----|--2----2--2----2--2----|
|--0----0---------------|--0--0--0--0------------|-----------------------|

                                                        dog eat
|------------------|-----------------------|------------------|
|------------------|-----------------------|------------------|
|------------------|--2----2--2----2--2----|------------------|
|------------------|--2----2--2----2--2----|------------------|
|------------------|--0----0--0----0--0----|------------------|
|------------------|-----------------------|------------------|


  dog                             dog eat  dog
|---------------------|------------------|---------------------|
|---------2------3----|------------------|---------2------3----|
|--1------2------2----|------------------|--1------2------2----|
|--2------2------0----|------------------|--2------2------0----|
|--2------0------0----|------------------|--2------0------0----|
|--0------------------|------------------|--0------------------|

|------------------|
|------------------|
|------------------|
|------------------|
|------------------|
|------------------|
Composição de Angus Young / Bon Scott / Malcolm Young
11.199 exibições
    • ½ Tom
    • A
    • Bb
    • B
    • C
    • Db
    • D
    • Eb
    • E
    • F
    • F#
    • G
    • Ab
  • Adicionar à lista

    0 comentários

    Mostrar mais comentários

    Conseguiu tocar?

    4 Tocaram 0 Ainda não

    Grave um vídeo tocando Dog Eat Dog e mande pra gente!

    00:00 / 00:00
    outros vídeos desta música
    repetir qualidade Automático
    Outros vídeos desta música
    00:00 / 00:00
    Automático
    OK