Cifra Club

Aprenda

Emission Control

AC/DC

Cifra: Principal (violão e guitarra)
Tom: F
Guitarra 1: Aangus   
Guitarra 2 Steve

E|-------------------|-----------------| 
B|-------------------|---------------3-| 
G|-------------------|-------3-------3-|
D|---5-3-5---3---3---|-3-5-5-------5---|
A|---------4---3---1-|---------3-5-----|
E|-3-----------------|-----------------|

Refrão:
 
E|-------------------| 
B|---------------5-6-|
G|-7b8r7p5-------5-5-|
D|---------7b8r7-----|
A|-------------------|
E|-------------------|

E|-----1-1-----------| 
B|-1---1-1-----1---3-|
G|-0---2-2-x3 -0---3-|
D|-2---3-3-----2---3-|
A|-3-----------3---1-|
E|-------------------|

Solo:

E|----------------10-------------------------------------------------------------------------------------|
B|-13b15r13b15r13----10-13/15p13-15-----------13----------13-----------------------13-13-13-12-b13r12-10-|
G|-----------------------------------12b14r12----12b14r12----12b14r12p10-12p10-----14-14-13-12-b13r12-10-|
D|-----------------------------------------------------------------------------10------------------------|
A|-------------------------------------------------------------------------------------------------------|
E|-------------------------------------------------------------------------------------------------------|

E|-13b15-13-10-------|
B|-------------13-13-|
G|-------------------|
D|-------------------|
A|-------------------|
E|-------------------|
Colaboração e revisão:
  • Guilherme Bertollo
  • Gabriel Lima
542 exibições
    • ½ Tom
    • A
    • Bb
    • B
    • C
    • Db
    • D
    • Eb
    • E
    • F
    • F#
    • G
    • Ab
  • Adicionar à lista

    0 comentários

    Mostrar mais comentários

    Conseguiu tocar?

    2 Tocaram 0 Ainda não

    Grave um vídeo tocando Emission Control e mande pra gente!

    00:00 / 00:00
    outros vídeos desta música
    repetir qualidade Automático
    Outros vídeos desta música
    00:00 / 00:00
    Automático
    OK