Cifra Club

Aprenda

Evil Walks

AC/DC

Cifra: Principal (violão e guitarra)
Tom: G
(Malcolm Young, Angus Young & Brian Johnson)

Publicado sobre
 For Those About To Rock We Salute You (1981)


Tablatura de guitarra

 Intro:
|--------------------|-----------------------|----------------------|
|--------------------|--------------3-1------|----------------------|
|--------------1--1--|---------4--------2-4--|----------------1--1--|
|--------------2--2--|------2----------------|----------------2--2--|
|--------------2--2--|-----------------------|----------------2--2--|
|--------------0--0--|-----------------------|----------------0--0--|

 3rd time:
|-----------------------|-------------------|----------3--------2--|
|--------------3-1------|--------0----------|-----3----3--------3--|
|---------4-------2--2--|--------0----------|--1--2----0--------2--|
|------2-------------2--|--------0----------|--2--0----0--------0--|
|--------------------0--|-------------------|--2-------2--------0--|
|-----------------------|--------3----------|--0--2----3-----------|

|-------------------|----------3--3----3--2--|------------------|
|--------2----------|-----3----3--3----3--3--|------------------|
|--------2----------|--1--2----0--0----0--2--|------------------|
|--------2----------|--2--0----0--0----0--0--|------------------|
|--------0----------|--2-------2--2----2--0--|------------------|
|-------------------|--0--2----3--3----3-----|------------------|

 Verse guitar 1:
|-----------------------------|-----------10--------------|
|-9-10--9----9----------------|---------------------------|
|----9--9----9--11----11---9--|--------9--------9------9--|
|-9-11--9----9--12----12--11--|----11--------------11--9--|
|-----------------------------|---------------------------|
|-----------------------------|---------------------------|

 Verse guitar 2:
|-------------------------|------------------------|
|---5--5----5--3----3--2--|----------3----2--------|
|-4-6--4----4--2----2--2--|----------2----2--------|
|----------------------2--|-------2--4----2--------|
|-------------------------|----4-------------4-----|
|-------------------------|---------------------0--|
Composição de Angus Young / Brian Johnson
Colaboração e revisão:
  • . .
6.748 exibições
    • ½ Tom
    • A
    • Bb
    • B
    • C
    • Db
    • D
    • Eb
    • E
    • F
    • F#
    • G
    • Ab
  • Adicionar à lista

    0 comentários

    Mostrar mais comentários

    Conseguiu tocar?

    1 Tocaram 0 Ainda não

    Grave um vídeo tocando Evil Walks e mande pra gente!

    00:00 / 00:00
    outros vídeos desta música
    repetir qualidade Automático
    Outros vídeos desta música
    00:00 / 00:00
    Automático

    Cifra Club Pro

    Aproveite o Cifra Club com benefícios exclusivos e sem anúncios
    7 dias grátis
    Cifra Club Pro
    Aproveite o Cifra Club com benefícios exclusivos e sem anúncios
    7 dias grátis
    OK