Cifra Club

Aprenda

Girls Got Rhythm

AC/DC

Cifra: Principal (violão e guitarra)
Tom: D
     Guitarra principal:

            

E|-------------------|
B|-------------------|
G|-7-5-----------5-7-| X3
D|-7-5-----7-7-x-5---|
A|-----7h9-----------|
E|-------------------|
   


E|-----------------|
B|-----------------|
G|-7-5-------------|
D|-7-5-----7-7---7-|
A|-----7h9-----9---|
E|-----------------|

 
 
E|-------------------|
B|-------------------|
G|-7-5-----------5-7-| X8
D|-7-5-----7-7-x-5---|
A|-----7h9-----------|
E|-------------------|


E|---------------------|
B|---------------------|
G|-7-7-7-----------5---| X3
D|-7-7-7-----7-7-x-5-7-|
A|-------7h9-----------|
E|---------------------|


E|-------------|---------------|
B|-------------|---------------|
G|---4---4-x-1-|-1-1-1-1-1-1-x-|
D|---4---4-x-2-|-2-2-2-2-2-2-x-|
A|-2-2-2-2-x-2-|-2-2-2-2-2-2-x-|
E|-----------0-|-0-0-0-0-0-0-x-|


E|-------------------|
B|-------------------|
G|-7-5-----------5-7-| X6
D|-7-5-----7-7-x-5---|
A|-----7h9-----------|
E|-------------------|


Guitarra base:

Obs: A guitarra base só entrará depois que a guitarra principal tocar o riff principal uma vez (ou seja, x1).



E|------------------|
B|------------------|
G|-7-5-----2------2-| X2
D|-7-5-----2------2-|
A|-5-3-----0-x-3b-0-|
E|-----0h2----------|


E|-----------------|
B|-----------------|
G|-7-5-----2-2---2-| 
D|-7-5-----2-2---2-|
A|-5-3-----0-0---0-|
E|-----0h2-----2---|


E|------------------|
B|------------------|
G|-7-5-----2------2-| X8
D|-7-5-----2------2-|
A|-5-3-----0-x-3b-0-|
E|-----0h2----------|


E|-3-3-2--------------|
B|-3-3-3--------------|
G|-0-0-2-----2------2-| X3
D|-0-0-0-----2------2-|
A|-0-0-------0-x-3b-0-|
E|-3-3---0h2----------|


E|-------------|---------------|
B|-------------|---------------|
G|---4---4-x-1-|-1-1-1-1-1-1-x-|
D|---4---4-x-2-|-2-2-2-2-2-2-x-|
A|-2-2-2-2-x-2-|-2-2-2-2-2-2-x-|
E|-----------0-|-0-0-0-0-0-0-x-|


E|------------------|
B|------------------|
G|-7-5-----2------2-| X6
D|-7-5-----2------2-|
A|-5-3-----0-x-3b-0-|
E|-----0h2----------|



Letra:
 I've been around the world 
I've seen a million girls 
Ain't one of them got 
What my lady she's got 
She steals the spotlight 
Knocks me of my feet 
She's enough to start a 
landslide 
Just walking down the street 
Wearing dresses so tight 
And looking dynamite 
Enough to blow me out 
No doubt about it can't live 
without it 

[REFRÃO] 
The girl's got the rhythm 
The girl's got the rhythm 
She's got the backseat 
rhythm 
The girl's got the rhythm 

She's like a lethal brand 
Too much for any man 
She gives me first degree 
She really satisfies me 
Love me till I'm legless 
Aching and sore 
Enough to stop a freight 
train 
Or start the Third World War 
You know I'm losin' sleep 
I'm in too deep 
And my body needs love 
No doubt about it can't live 
without it 

[REFRÃO] 

You know she moves like sin 
And when she lets me in 
It's like liquid love 
No doubt about it can't live 
without it 

[REFRÃO] 

You know she really got the 
rhythm 
She's got the backseat 
rhythm 
Rock 'n' roll rhythm 
The girl's got the rhythm
Composição de Angus Young / Bon Scott / Malcolm Young
Colaboração e revisão:
  • Arthur Fagundes
  • Marcelo Vieira
16.401 exibições
  • Simplificar cifra
    • ½ Tom
    • A
    • Bb
    • B
    • C
    • Db
    • D
    • Eb
    • E
    • F
    • F#
    • G
    • Ab
  • Adicionar à lista

    0 comentários

    Mostrar mais comentários

    Conseguiu tocar?

    4 Tocaram 0 Ainda não

    Grave um vídeo tocando Girls Got Rhythm e mande pra gente!

    00:00 / 00:00
    outros vídeos desta música
    repetir qualidade Automático
    Outros vídeos desta música
    00:00 / 00:00
    Automático
    OK