Cifra Club

Aprenda

Go Zone

AC/DC

Cifra: Principal (violão e guitarra)
Tom: G
Intro
E--------------------|----------------|--------------|
B--------------------|----------------|--------------|
G--------------------|----------------|--------------|
D----7---5-----------|---7---5--------|--------------|
A------------7~~~~~~-|----------7--5--|--3-----------|
E--------------------|----------------|-----5--3--0--|
Riff 1
E-------------|---------|
B---3-3-3-----|--3-3----|
G---2-2-2-2---|--2-2-2--|
D---0-0-0-2---|--0-0-2--|
A---------0---|------0--|
E-------------|---------|

        Main Riff
        E-------------------------------------------| 
        B---2-3-3-----------------------------------|  
        G---2-2-2-2-------0-2-------0-2---0^2-0^2---| 
        D---0-0-0-2-------0-2-------0-2---0^2-0^2---| 
        A---------0-------0-0-------0-0---0---0-----| 
        E-------------------------------------------| 
Pre Chorus
               ()= lead
E------------------|-------------------|-------------------|-----------------------|
B------------------|-------------------|---8-8-8---8---8---|----8-8-8---8----------|
G---5-5-5---5--(5)~|~~--5-5-5---5--(7)~|~~-7-7-7---7--(7)~~|~---7-7-7---7--7--2----|
D---5-5-5---5-5-5--|----5-5-5---5-5-7--|---5-5-5-7-5-7-5---|----5-5-5-7-5--7--2----|
A---3-3-3---3-5-3--|----3-3-3---3-5-5--|---5-----5---5-----|----5-----5----5--0----|
E---------3---3----|----------3---3----|-------------------|-----------------------|

Chorus
E-------------|---------|   |----------------------------------|----------------------------|
B---3-3-3-----|--3------|   |---3-3-3------3-------------------|----------------------------|
G---2-2-2-2---|--2-2-2--|   |---2-2-2--2---2--2--------7-------|----------------------------|
D---0-0-0-2---|--0-x-2--|   |---0-0-0--2---0--2--------7-------|---7--5---------------------|
A---------0---|----0-0--|   |----------0------0------3(5)~~~---|---------7--5---------------|
E-------------|---------|x3 |--------------------5-7-----------|---------------8--5--3--0---|
                                                                   "down down down down..."

SOLO
  Lightly . . . . . . . . . .  repeat
E|-------------------------------|| |--15b-~~~~-15^13^12----12---------------------------------|
B|---5^2-3^2-2-2^3-3-2-2^3-3-2-2-|| |--------------------15----15--12-14-12-15-12~-------------|
G|---2-2-2-2-2-2-2-2-2-2-2-2-2-2-|| |------------------------------12-12-12-12-12~-14b(15)-----|
D|-------------------------------|| |----------------------------------------------------------|
A|-------------------------------|| |------------------------------------------------------/---|
E|-------------------------------|| |----------------------------------------------------------|

E|---------------------------------------------------------------------------------------------|
B|--14b(15)-15-15--12-15^14^12----12-----------------------------------------------------------|
G|-----------------------------14----14------------------------------------------------/7-9^7--|
D|--------------------------------------11-12^12----11------12b~~-----<7>^5----<9>~~~----------|
A|-----------------------------------------------12----12----------/--------<7>----------------|
E|---------------------------------------------------------------------------------------------|

E|-----------5^2^0---0-------------------------------------------------------------------------|
B|-----------------2--------------------------------------------------15b-12-15-12-15b12--15-15|
G|----7----------------2~~~~-------------------------------------------------------------------|
D|--9---9----------------------0-2^0-----0-----------------------------------------------------|
A|------------------------------------2b---r0--------------------------------------------------|
E|------------------------------------------------7-7---7\---7-7--7\---------------------------|

E|--3-5b~~r^3^0--------------------------------------------------------------------------------|
B|--------------3-5~~--------------------------------------------------------------------------|
G|--------------------2-/7-9b~~r^7---7----------7-9b-r^7---7--------7/12-9-7---7---------------|
D|---------------------------------9---7~~---------------9---7~~-------------9---9--7~~~~~~~---|
A|------------------------------------------/-\------------------------------------------------|
E|---------------------------------------------------------------------------------------------|

SOLO 2/Outro
E|----------------------------------17b-17b-^15----17--~~~~~--\---/22b-19-17----17-------------|
B|----------------------------------------------17---------------------------19----19~~~-------|
G|--------------------14---14~~~~--------------------------------------------------------------|
D|--x\----12--14~~~~14b-r----------------------------------------------------------------------|
A|--x\-----------------------------------------------------------------------------------------|
E|--x\-----------------------------------------------------------------------------------------|

E|---------------------------------------------12-10-------------------------------------------|
B|--15-12-15--12-------------------------------------12--12/15~~-----15^12---------------------|
G|----------------14-12--14~~~-x\--17b-r-\----------------x----------------14~~-----12-14~~~~--|
D|-----------------------------x\--------------------------------------------------------------|
A|---------------------------------------------------------------------------------------------|
E|---------------------------------------------------------------------------------------------|
                                                 (lead)
E|-----------------------------------------------------------------------||
B|---------------------------------------Free Time-----------------------||
G|-~~~~~~~~----7--5---------------------2>>>>>>>>>>>>>>>>>>>>>-------2-\-||
D|-------------------7--5---------------2>>>>>>>>>>>>>>>>>>>>>-------2-\-||
A|-------------------------3--0-----2---0>>>>>>>>>>>>>>>>>>>>>-------0-\-||
E|-------------------------------3--0------------(3^5^3^5^3^5)-----------||
Composição de Angus Young / Brian Johnson / Malcolm Young
3.328 exibições
    • ½ Tom
    • A
    • Bb
    • B
    • C
    • Db
    • D
    • Eb
    • E
    • F
    • F#
    • G
    • Ab
  • Adicionar à lista

    0 comentários

    Mostrar mais comentários

    Conseguiu tocar?

    0 Tocaram 0 Ainda não

    Grave um vídeo tocando Go Zone e mande pra gente!

    00:00 / 00:00
    outros vídeos desta música
    repetir qualidade Automático
    Outros vídeos desta música
    00:00 / 00:00
    Automático
    OK