Cifra Club

Aprenda

Got You By The Balls

AC/DC

Cifra: Principal (violão e guitarra)
Tom: G
Riff & Chorus
  Guitar 1
E-----------------------------------------|
B------3-----------------------3-----3----|
G---2--2--2--2--5---2----2--0--2--2--2---.|
D---2--0--2--2--5---2----2--0--0--2--0---.|
A---0-----0--0--3---0----0--------0-------|
E---------------------------3-------------| repeat

  Guiatr 2 (enters second time)
E-----------------------------------------|
B------3-----------------------3-----3----|
G---2--2--2--2--2---2----2-----2--2--2---.|
D---2--0--2--2--2---2----2--2--0--2--0---.|
A---0-----0--0--3---0----0--2-----0-------|
E---------------------------3-------------| repeat


         Pre Chrous
        E--------------------------------------------|----------------------------------------|
        B--------------------------------------------|----------------------------------------|
        G---5--------5-------5-------5-----5-----5---|---7-----7------7------7-----7-----7----|
        D---5--------5-------5-------5-----5-----5---|---7-----7------7------7-----7-----7----|
        A---3--------3-------3-------3-----3-----3---|---5-----5------5------5-----5-----5----|
        E--------------------------------------------|----------------------------------------| x2
        "but she wont......"                           "What you...."

        E--------------------------------------------|----------------------------------------|
        B--------------------------------------------|----------------------------------------|
        G---5--------5-------5-------5-----5-----5---|---7--7--7---7--7--7---7--7--7---7-7----|
        D---5--------5-------5-------5-----5-----5---|---7--7--7---7--7--7---7--7--7---7-7----|
        A---3--------3-------3-------3-----3-----3---|---5--5--5---5--5--5---5--5--5---5-5----|
        E--------------------------------------------|----------------------------------------| x2
        "but she wont......"                   "unless theres money in her......
        
        E--------------------------------------------|
        B--------------------------------------------|
        G--------------------------------------------|
        D-----2--2--2--2----2--2--2--2---------------|
        A-----2--2--2--2----2--2--2--2---------------|
        E-----0--0--0--0----0--0--0--0---------------|
        "and shes calling all the shots"


That extra bit                                               back to riff
E|---------------------------------------------------------|-----------------------------------|
B|-------------3-------------------------------------------|-----------------------------------|
G|-----0-------2-------2-----------------------------------|-----------------------------------|
D|-----0-------0-------2-----------------------------------|-----------------------------------|
A|---------------------0-----------------------------------|-----------------------------------|
E|-----3---------------------------------------------------|-----------------------------------|

SOLO (star with above "extra bit riff"
E|---------------------------------------------------------------------------------------------|
B|---------------------------------------------------------------------------------------------|
G|---------------------2~~~~~~~~~~~~~~~~~~~~~~~----2~~~~~~~-2----------------------------------|
D|---------------------------------------------------------------------------------------------|
A|---------------------------------------------------------------------------------------------|
E|---------------------------------------------------------------------------------------------|

let the rythem play the main riff and work in this
E|-------------------------------------------------------------5----10--5~~-5-8b--5~~~~--------|
B|------3------------------3---------------------3--------------------------------------8b~~~~~~
G|---2----2--2--5--2~~~--2---2--2--5--2~~~~~--2----2--2--5--2----------------------------------|
D|---------------------------------------------------------------------------------------------|
A|---------------------------------------------------------------------------------------------|
E|---------------------------------------------------------------------------------------------|

E|--10-5-5~~~~-8--5~~~~~~------------5-------------------------------------|                    
B|------------------------8~~~~~~~~~---5-8---------------------------------|                    
G|-----------------------------------------7b-r-7-5^7~~~~~~----------------|                    
D|----------------------------------------------------------7\----5---7----|                    
A|--------------------------------------------------------------x----------|                    
E|-------------------------------------------------------------------------|                    
  Ryth
 |-------------------------------------------------------------------------|                    
 |--3---------------------------------3--------------------3-------3-------|                     
 |--2--2--2---5---2--------2----------2----------------2---2---2---2-------|                     
 |--0--2--2---5---2--------2----------0----------------2---0---2---0-------|                    
 |-----0--0---3---0--------0---------------------------0-------0-----------|                    
 |-------------------------------------------------------------------------|

E|---------------------------------------------------------------------------------------------|
B|-------------------------------7b-r--7b-r-~~~~~~-----------------------13b-13-16-16b-16-16b-16
G|-<5>----5--------------5---5---7b-r---------------5-----------------14-----------------------|
D|----------7--7~~~~~-----------------------------------7------\-------------------------------|
A|---------------------------------------------------------------------------------------------|
E|---------------------------------------------------------------------------------------------|

 |---------------------------------------------------------------------------------------------|
 |-----------------3---------------------------------------3--------------3--------------------|
 |--0--------------2-----------------0--------0----2-------2---------2----2--------------------|
 |--0--------------0-----------------0--------0----2-------0---------2----0--------------------|
 |-------------------------------------------------0-----------------0-------------------------|
 |--3----------------------------2---3----2---3------------------------------------------------|

E|--------------12-----------------------------------------------------------------------------|
B|--16b-16-16b---13--------------------------------------------------20--20----20--------------|
G|-----------------14~~~~~~-12b-------5------7br~~~-5---19~~-19b-19b-19b-19b---19b-------------|
D|----------------------------------------------------7----------------------------------------|
A|----------------------------------------0----------------------------------------------------|
E|---------------------------------------------------------------------------------------------|
                                                                             "hangin left hanging
 |---------------------------------------------------------------------------------------------|
 |------3-------3-----------------3---------3---------------------------3----------------------|
 |--2---2---2---2-----------------2--0------2---------0-------0----2----2------2---------------|
 |--2---0---2---0-----------------0--0------0---------0-------0----2----0------2---------------|
 |--0-------0------------------------------------------------------0-----------0---------------|
 |--------------------------------2--3------------2---3---2---3--------------------------------|
                                                                         (rythem)
E|---------------------------------------------------------------------------------------------|
B|------------------------------------------------------------------7b-------------------------|
G|-------------scracth----------------------------------------------7b---(2)-------------------|
D|--------x/\/\/\/---x-/\/\/\/\------------------------------------------(2)-------------------|
A|---x----x/\/\/\/---x/\/\/\/\/------------------------------------------(0)-------------------|
E|---------------------------------------------------------------------------------------------|
right  Got you by the balls....got your shorts, got your curlys GOT-CHA


next solo bit
E|-----------------------------------------------8-10-10b10b-10b-----10b-r-9----------8b-------|
B|-------------------------------------------10------------------------------10----------------|
G|--7b--7b-----7^5--------5b-------------------------------------------------------------------|
D|-----------------7--7------------------------------------------------------------------------|
A|---------------------------------------------------------------------------------------------|
E|---------------------------------------------------------------------------------------------|

E|-----10b-r---------8----------8b-------------------------------------------------------------|
B|--------------------10~~~~~~~~---------------------------------------------------------------|
G|---------------------------------------------------------------------------------------------|
D|---------------------------------------------------------------------------------------------|
A|---------------------------------------------------------------------------------------------|
E|---------------------------------------------------------------------------------------------|

E|-------------------------15-----15--------------------------------20b---20-17-----------17---|
B|-----13-15-15b-r^13--15b----15b----15b----15~~~~~~~~~~~~~~~~------------------20-17-20b------|
G|--14-----------------------------------------------------------------------------------------|
D|---------------------------------------------------------------------------------------------|
A|---------------------------------------------------------------------------------------------|
E|---------------------------------------------------------------------------------------------|

E|--------------------------------------8-----5--|--------------------------------|------------||
B|-20-17----17-----------------------------------|---8---7------------------------|------------||
G|-------19----------17b---------17--------------|----------5---------------------|------------||
D|-------------19~~~~--------19------------------|-------------7~~~~~~~~~~~~~~~~~-|------------||
A|-----------------------------------------------|--------------------------------|------------||
E|-----------------------------------------------|--------------------------------|------------||

                                                 |---------------------------------------------||
                                                 |-------3-----3-----------------------3-------||
                                                 |---0---2--2--2--------------------2--2-2-2-2-||
                                                 |---0---0--2--0--------------------2--0-2-2-2-||
                                                 |----------0-----------------------0----0-0-0-||
                                                 |---3-----------------------------------------||
Composição de Angus Young / Malcolm Young
3.676 exibições
    • ½ Tom
    • A
    • Bb
    • B
    • C
    • Db
    • D
    • Eb
    • E
    • F
    • F#
    • G
    • Ab
  • Adicionar à lista

    0 comentários

    Mostrar mais comentários

    Conseguiu tocar?

    1 Tocaram 0 Ainda não

    Grave um vídeo tocando Got You By The Balls e mande pra gente!

    00:00 / 00:00
    outros vídeos desta música
    repetir qualidade Automático
    Outros vídeos desta música
    00:00 / 00:00
    Automático

    Cifra Club Pro

    Aproveite o Cifra Club com benefícios exclusivos e sem anúncios
    7 dias grátis
    Cifra Club Pro
    Aproveite o Cifra Club com benefícios exclusivos e sem anúncios
    7 dias grátis
    OK