Cifra Club

Aprenda

Hail Caesar

AC/DC

Cifra: Principal (violão e guitarra)
Tom: G
Standard Tuning 

This is my first tab ever, my own work and I believe it to be the most
accurate on the web for this song.
 

E|-----------------|
B|-----------------|
G|-----------------|X6
D|---------------2-|
A|-2-2-2-2-2-2-2-0-|
E|-3-0-3-0-3-0-3---|
 

D|-----------|
A|-----------| X4
E|-0-3-5-3-0-|
 

          ....Keeps lickin' all the honey...

e|----------|-----------|------------|------------|----------|
B|----------|-----------|------------|-----------3|----------|
G|----------|-----------|------------|-----------2|----------|
D|----------|-----------|------------|-----------0|----------|
A|-----2----|-----2-----|-0-3-5-0-3-0|-3-0--3-----|-4---2----|
E|-2-5--5-2-|-2-5---5-2-|------------|------------|-2-5---5-2|

 

..TO THE LIONS

e|-----------|--------------------|
B|-----------|--------------------|
G|-----------|--------------------|
D|-----------|--------------------|
A|-----2-----|-252225222522252225~|
E|-2-5---5-2-|--------------------|

 

Chorus is same as opening lick.  Verse two starts at the second lick and
 repeats from there. Enjoy!
Composição de A. Young
Colaboração e revisão:
  • Ivan Neto
8.343 exibições
    • ½ Tom
    • A
    • Bb
    • B
    • C
    • Db
    • D
    • Eb
    • E
    • F
    • F#
    • G
    • Ab
  • Adicionar à lista

    0 comentários

    Mostrar mais comentários

    Conseguiu tocar?

    7 Tocaram 0 Ainda não

    Grave um vídeo tocando Hail Caesar e mande pra gente!

    00:00 / 00:00
    outros vídeos desta música
    repetir qualidade Automático
    Outros vídeos desta música
    00:00 / 00:00
    Automático

    Cifra Club Pro

    Aproveite o Cifra Club com benefícios exclusivos e sem anúncios
    7 dias grátis
    Cifra Club Pro
    Aproveite o Cifra Club com benefícios exclusivos e sem anúncios
    7 dias grátis
    OK