Cifra Club

Hard As A Rock

AC/DC

Cifra: Principal (violão e guitarra)
exibições 73.148
Tom: A
[Intro]

[Guitarra 1]

E|-2-4-5-4-2-0-2-4-2--4-0-4-2--|
B|-0-0-0-0-0-0-0-0-0--0-0-0-0--|
G|-----------------------------|
D|-----------------------------|
A|-----------------------------|
E|-----------------------------|

[Guitarra 2]

E|-----------------------------|
B|-----------------------------|
G|-4-----4-----4---------------|
D|-4--2--4--2--4---------------|
A|-2--2--2--2--2---------------|
E|----0-----0------------------|

[Verso]

[Guitarra 1]

E|-----------------------------|
B|-----------------------------|
G|-----------------------------|
D|-----------------------------|
A|-11p9--9-9-9--11p9--9-9-9----|
E|-7-----7-7-7--7-----7-7-7----|

[Guitarra 2]

E|-----------------------------|
B|-----------------------------|
G|----4-4-4-4-----4-4-4-4------|
D|-2--4-4-4-4--2--4-4-4-4------|
A|-2--2-2-2-2--2--2-2-2-2------|
E|-0-----------0---------------|

E|-----------------------------|
B|-----------------------------|
G|-2-----4---------------------|
D|-2--2--4---------------------|
A|-0--2--2---------------------|
E|----0------------------------|

[Pré-refrão]

[Guitarra 1]

E|-5-4-2-4-5-4-2-4-2-4-5-4-2---|
B|-0-0-0-0-0-0-0-0-0-0-0-0-0---|
G|-----------------------------|
D|-----------------------------|
A|-----------------------------|
E|-----------------------------|

[Guitarra 2]

E|-----------------------------|
B|-----------------------------|
G|-2-1-4--1--------------------|
D|-2-2-4--2--------------------|
A|-0-2-2--2--------------------|
E|---0----0--------------------|

E|-----------------------------|
B|-----------------------------|
G|-2-1-2-----------------------|
D|-2-2-2-----------------------|
A|-0-2-0-----------------------|
E|---0-------------------------|

[Refrão]

[Guitarra 1]

E|-2-4-5-4-2-0-2-4-2--4-0-4-2--|
B|-0-0-0-0-0-0-0-0-0--0-0-0-0--|
G|-----------------------------|
D|-----------------------------|
A|-----------------------------|
E|-----------------------------|

[Guitarra 2]

E|-----------------------------|
B|-----------------------------|
G|-4-----4--2-----4------------|
D|-4--2--4--2--2--4------------|
A|-2--2--2--0--2--2------------|
E|----0--------0---------------|

[Ponte]

[Guitarra 1]

E|-----------------------------|
B|-----------------------------|
G|-9-7-9-----------------------|
D|-------9---------------------|
A|-----------------------------|
E|-----------------------------|

[Guitarra 2]

E|-----------------------------|
B|-----------------------------|
G|-2--1--1--4------------------|
D|-2--2--2--4------------------|
A|-0--2--2--2------------------|
E|----0--0---------------------|


[Verso]

[Guitarra 1]

E|-----------------------------|
B|-----------------------------|
G|-----------------------------|
D|-----------------------------|
A|-11p9--9-9-9--11p9--9-9-9----|
E|-7-----7-7-7--7-----7-7-7----|

[Guitarra 2]

E|-----------------------------|
B|-----------------------------|
G|----4-4-4-4-----4-4-4-4------|
D|-2--4-4-4-4--2--4-4-4-4------|
A|-2--2-2-2-2--2--2-2-2-2------|
E|-0-----------0---------------|

E|-----------------------------|
B|-----------------------------|
G|-2-----4---------------------|
D|-2--2--4---------------------|
A|-0--2--2---------------------|
E|----0------------------------|

[Pré-refrão]

[Guitarra 1]

E|-5-4-2-4-5-4-2-4-2-4-5-4-2---|
B|-0-0-0-0-0-0-0-0-0-0-0-0-0---|
G|-----------------------------|
D|-----------------------------|
A|-----------------------------|
E|-----------------------------|

[Guitarra 2]

E|-----------------------------|
B|-----------------------------|
G|-2-1-4--1--------------------|
D|-2-2-4--2--------------------|
A|-0-2-2--2--------------------|
E|---0----0--------------------|

E|-----------------------------|
B|-----------------------------|
G|-2-1-2-----------------------|
D|-2-2-2-----------------------|
A|-0-2-0-----------------------|
E|---0-------------------------|

[Refrão]

[Guitarra 1]

E|-2-4-5-4-2-0-2-4-2--4-0-4-2--|
B|-0-0-0-0-0-0-0-0-0--0-0-0-0--|
G|-----------------------------|
D|-----------------------------|
A|-----------------------------|
E|-----------------------------|

[Guitarra 2]

E|-----------------------------|
B|-----------------------------|
G|-4-----4--2-----4------------|
D|-4--2--4--2--2--4------------|
A|-2--2--2--0--2--2------------|
E|----0--------0---------------|

[Solo]

E|-----------------------12-12-|
B|-5-------------12-12---------|
G|---4----7-9b9----------------|
D|------9----------------------|
A|-----------------------------|
E|-----------------------------|

E|-----------------------------|
B|-12-12-10-10-----------------|
G|-------------9-7-9-4-6b8-----|
D|-----------------------------|
A|-----------------------------|
E|-----------------------------|

E|-----------------------------|
B|---------------12h13p12------|
G|-4-4-7-9h10------------------|
D|-----------------------------|
A|-----------------------------|
E|-----------------------------|

E|----------12----14p12-----14-|
B|-12h13p12----12-------12-----|
G|-----------------------------|
D|-----------------------------|
A|-----------------------------|
E|-----------------------------|

E|----------------12h14-14-12--|
B|-12-12-12-12-15--------------|
G|-----------------------------|
D|-----------------------------|
A|-----------------------------|
E|-----------------------------|

E|--------------14-14----------|
B|--14-12-12-12-------12h13p12-|
G|-----------------------------|
D|-----------------------------|
A|-----------------------------|
E|-----------------------------|

[Refrão]

[Guitarra 1]

E|-2-4-5-4-2-0-2-4-2--4-0-4-2--|
B|-0-0-0-0-0-0-0-0-0--0-0-0-0--|
G|-----------------------------|
D|-----------------------------|
A|-----------------------------|
E|-----------------------------|

[Guitarra 2]

E|-----------------------------|
B|-----------------------------|
G|-4-----4--2-----4------------|
D|-4--2--4--2--2--4------------|
A|-2--2--2--0--2--2------------|
E|----0--------0---------------|
Acordes para:
    Composição: Angus Young / Malcolm YoungColaboração e revisão:

    0 comentários

      mostrar mais comentários

      Conseguiu tocar?

      19tocaram0ainda não

      Grave um vídeo tocando Hard As A Rock e mande pra gente!

      00:00 / 00:00
      outros vídeos desta música
      repetirqualidadeAutomático
      Outro vídeos desta música
        00:00 / 00:00
        OK