Cifra Club

Aprenda

Kissin' Dynamite

AC/DC

Cifra: Principal (violão e guitarra)
Tom: D
INTRO

Guitar 1
E|----------------|-------------3---|
B|----5---3-3--5--|----5---3-3--3---|
G|----4---2-2--4--|----4---2-2--0---|
D|----2---0-0--2--|----2---0-0--0---|
A|--2---2---------|--2---2----------|
E|----------------|-----------------|x2

E|----------------|-----------------|
B|----5----3-3-5--|----5---3-3-/5~~-|
G|--4-4--2---2-4--|--4-4---2-2-/4~~-|
D|----------------|-----------------|
A|----------------|-----------------|
E|----------------|-----------------|x2


Riff 1
        E----------------------|---------------------|
        B----------------------|---------------------|
        G------9-----7--7------|------9-----7--7--9--|
        D---9--9-----7--7--5---|------9-----7--7--9--|
        A---9--7-----5--5--5---|------7-----5--5--7--|
        E---7--0--0--------3---|---7--0---0-------0--|
          Guitar 2 (after chorus)
        E----------------------|---------------------0--|
        B------------3--3--3---|------------3--3-----0--|
        G---4--1-----2--2--0---|---4--1-----2--2--1--1--|
        D---4--2-----0--0--0---|---4--2-----0--0--2-----|
        A---2--2---------------|---2--2-----------2-----|
        E------0--0--------3---|------0---0-------0-----| repeat

Main Riff
        Guitar 1                        (every third bar is a A instead of E)
                E----------------------------|    |--------------------|
                B----------------------------|    |---3-------3--------|
                G-------------------------(2)|    |---2---2---2---2----|
                D---2--0-----2---2-0----2-(2)|    |---0---2---0---2----|
                A---------2--2-------2--2-(0)|    |-------0-------0----|
                E------------0----------0----|x4  |--------------------|
        Guitar 2
                E----------------------------|    |--------------------|
                B----------------------------|    |--------------------|
                G----------------------------|    |--------------------|
                D-----------------------2----|    |---2---0------------|
                A---7-^5~-2------7^5-2--2----|    |-----------2---0----|
                E------------0----------0----|x4  |--------------------|


CHORUS
  Guitar 1
       pm. . . .        . . . . .          
E|--------------------------------------------------|
B|--------------------------------------------------|
G|---4-------------------------------4----4-4-4-4-4-|
D|---4---4-4-4-4-----2---------------4----4-4-4-4-4-|
A|---2---2-2-2-2-----2----2-2-2-2----2----2-2-2-2-2-|
E|-------------------0----0-0-0-0-------------------|
  Guitar 2
E|--------------------------------------------------|
B|--------------------------------------------------|
G|---4---------------1---------------4--------------|
D|---4---------------2---------------4--------------|
A|---2---------------2---------------2--------------|
E|-------------------0------------------------------|


SOLO
E|-------------------------------------------------------------------------12b-----------------|
B|----------------------------/12-12b~~---------------/12b-b-b-b-b-------------15-12-----------|
G|--x\-----------------------------------9-12-9----9--------------12-----------------14-12-----|
D|--x\------------------------------------------12------------------14~~~------------------12--|
A|--x\-/7~~~~~~~~~~~~~~~~-7\-------------------------------------------------------------------|
E|---------------------------------------------------------------------------------------------|

E|------------------12-12-12-12----------------------------------------------------------------|
B|--------15-12-----12-12-12-12-12-15-12-------------------------------------------------------|
G|--14-12--------12----------------------14-12------------12-14-12-14---------------------7---9|
D|---------------------------------------------14-12-14-12------------14-12-x\-/------------9--|
A|--------------------------------------------------------------------------x\-/---5---7-------|
E|--------------------------------------------------------------------------x\-/-0---0---------|

E|----------------------------------------------------------------5-5---7b~~~-/14b~~~-15-17-17-|
B|--3^5^3^5^3^5^3^5^3^0-----------7^5/3^0-----3-3-3-\-----------------8---------------17-17-17-|
G|----------------------2/4\2-0------------/4--------------------------------------------------|
D|---------------------------------------------------------------------------------------------|
A|-----------------------------------------------------0-2-2-0-2-------------------------------|
E|---------------------------------------------------------------------------------------------|

E|-15-17-17-17---15-17-17-17-----15-17-17-15-17-17----17-17------------------------------------|
B|-17-17-17-17---17-17-17-17--17----------17-------17-17-17------------------------------------|
G|------------------------------------------------------------12-14-12----12-------------------|
D|---------------------------------------------------------------------14----14-12----12-14----|
A|---------------------------------------------------------------------------------14----------|
E|---------------------------------------------------------------------------------------------|

E|--------------------------||
B|--------------------------||
G|--------------------------||
D|--12-14-12----------------||
A|-----------12-4-12-14~~~--||
E|--------------------------||


E|---------------------------------------------------------------------------------------------|
B|---------------------------------------------------------------------------------------------|
G|------------------------------------4-------------------------------------4------------------|
D|------------------------------------4-------------------------------------4------------------|
A|------------------------------------2-------------------------------------2------------------|
E|---------------------------------------------------------------------------------------------|
  Feel like kissing dynamite"         
E|------------------------||
B|------------------------||
G|------------------------||
D|-----4--4--4--------4---||
A|--4--2--2--2--4--2--2---||
E|------------------------||
Solo 2           repeat                repeat
E|-----------------------||-------------------||
B|-----------------------||-------------------||
G|---/7---------7b-------||--7--------/7------||
D|------9-9-9------9-9---||----9-7-9-----9-9--||
A|-----------------------||-------------------||
E|-----------------------||-------------------||
Composição de Angus Young / Brian Johnson / Malcolm Young
3.497 exibições
    • ½ Tom
    • A
    • Bb
    • B
    • C
    • Db
    • D
    • Eb
    • E
    • F
    • F#
    • G
    • Ab
  • Adicionar à lista

    0 comentários

    Mostrar mais comentários

    Conseguiu tocar?

    0 Tocaram 0 Ainda não

    Grave um vídeo tocando Kissin' Dynamite e mande pra gente!

    00:00 / 00:00
    outros vídeos desta música
    repetir qualidade Automático
    Outros vídeos desta música
    00:00 / 00:00
    Automático
    OK