Cifra Club

Aprenda

Let's Get It Up

AC/DC

Cifra: Principal (violão e guitarra)
Tom: E
Intro / Refrão:
E|-------------------------|-------------------|
B|-----------------2----3--|--3----------------|
G|-----------------2----2--|--2----------------|
D|------------2----2----4--|--4----------------|
A|---------2-------0----0--|--0----------------|
E|--0-2-4------------------|-------------------|

E|-------------------------|--------------------|------------------|
B|-----------------2----3--|--3----2------------|------------------|
G|-----------------2----2--|--2----2------------|------------------|
D|------------2----2----4--|--4----2------------|------------------|
A|---------2-------0----0--|--0----0------------|------------------|
E|--0-2-4------------------|--------------------|------------------|

E|-------------------------|-------------------|-------------------------|--------------------|
B|-----------------2----3--|--3----------------|-----------------2----3--|--3----2------------|
G|-----------------2----2--|--2----------------|-----------------2----2--|--2----2------------|
D|------------2----2----4--|--4----------------|------------2----2----4--|--4----2------------|
A|---------2-------0----0--|--0----------------|---------2-------0----0--|--0----0------------|
E|--0-2-4------------------|-------------------|--0-2-4------------------|--------------------|

Verso:
E|----------0----------|---------------------|----------0----------|---------------------|
B|----------0----------|---------------------|----------0----------|---------------------|
G|--2--4----1----------|--2--4----4----------|--2--4----1----------|--2--4----4----------|
D|--2--4----2----------|--2--4----4----------|--2--4----2----------|--2--4----4----------|
A|--0--2----2----------|--0--2----2----------|--0--2----2----------|--0--2----2----------|
E|----------0----------|---------------------|----------0----------|---------------------|

 (_____________________________________________x3)

E|----------0--0---------|--0----------------0----|
B|----4--4--0--0----4----|--0----4---------0-2----|
G|----4--4--1--1----4----|--1----4-----------2----|
D|----2--2--2--2----2----|--2----4--2----2---2----|
A|----------2--2---------|--2----2--0----0---0----|
E|----------0--0---------|--0---------------------|

E|----------0--0----------|-----------------------|-----------------------|
B|----4--4--0--0----4--2--|------2----2--2--0--2--|----2--2----2--2--2----|
G|----4--4--1--1----4--2--|------2----2--2--2--2--|----2--2----2--2--2----|
D|----2--2--2--2----2--2--|------2----2--2--2--2--|----2--2----2--2--2----|
A|-0---------2--2-------0-|------0----0--0--0--0--|----0--0----0--0--0----|
E|----------0--0----------|-----------------------|-----------------------|

solo:
E|----------------------------------------------------------------------------|
B|------------------------10--10---10--\---10--12--12---12--14-16--14-12-15-17|
G|-9-7---------7----9-11-(11)--9-9-11--\---11--13--13---13--------------------|
D|-----9-9--------------------------------------------------------------------|
A|----------------------------------------------------------------------------|
E|----------------------------------------------------------------------------|

E|---------------------------------------------------------------------17-19--|
B|15-17-------15----16------------17-19----17--15---17-15---------------------|
G|----------------------16-16--------------------16-------16-------\----------|
D|----------------------------------------------------------------------------|
A|----------------------------------------------------------------------------|
E|----------------------------------------------------------------------------|

E|-17---14--------------------22-24--22----19---------------------------------|
B|---------17-18--17---15---------------------19--22-24--22-24--22-24--22-24--|
G|------------------------16--------------------------------------------------|
D|----------------------------------------------------------------------------|
A|----------------------------------------------------------------------------|
E|----------------------------------------------------------------------------|

E|---------------------------------------------------------------19-----22-24-|
B|22---22-24---22-19-----------------------------22-----------------19--------|
G|-------------------21-23-21--19--20------21-23----21-23--21-23--------------|
D|----------------------------------------------------------------------------|
A|----------------------------------------------------------------------------|
E|----------------------------------------------------------------------------|

E|22-19-------------------|
B|------19--22-24-----\---|
G|------------------------|
D|------------------------|
A|------------------------|
E|------------------------|
Composição de Angus Young / Brian Johnson / Sergio George / Steve Rothery
Colaboração e revisão:
  • Iuri Leonhardt
  • Henrique Barbosa
6.821 exibições
    • ½ Tom
    • A
    • Bb
    • B
    • C
    • Db
    • D
    • Eb
    • E
    • F
    • F#
    • G
    • Ab
  • Adicionar à lista

    0 comentários

    Mostrar mais comentários

    Conseguiu tocar?

    3 Tocaram 0 Ainda não

    Grave um vídeo tocando Let's Get It Up e mande pra gente!

    00:00 / 00:00
    outros vídeos desta música
    repetir qualidade Automático
    Outros vídeos desta música
    00:00 / 00:00
    Automático

    Cifra Club Pro

    Aproveite o Cifra Club com benefícios exclusivos e sem anúncios
    7 dias grátis
    Cifra Club Pro
    Aproveite o Cifra Club com benefícios exclusivos e sem anúncios
    7 dias grátis
    OK