Cifra Club

Aprenda

Let's Make It

AC/DC

Tab de baixo: Principal
			     Lets Make IT - AC/DC

Tabbed By : Alander
e-mail: 

Tuning:
Intro and bridge
G|---------------------------------------------------------------------------|
D|---------------------------------------------------------------------------|
A|---------------------55555555----------------------------------------------|
E|----00000000-33333333---------55555555-------------------------------------|
                                      Pm
G|---------------------------------------------------------------------------|
D|---------------------------------------------------------------------------|
A|--------------------5555555------------------------------------------------|
E|---00000000-3333333-----------5-----55555555-------------------------------|
verse and guitar solo
G|---------------------------------------------------------------------------|
D|---------------------------------------------------------------------------|
A|----3-------3--------3----------3------------------------------------------|
E|--------1-------3-------1-3--1----3----------------------------------------|

G|---------------------------------------------------------------------------|
D|---------------------------------------------------------------------------|
A|----3--------3--------3----------------------------------------------------|
E|-------3-1-----1-3--1---3--------------------------------------------------|
chorus
G|---------------------------------------------------------------------------|
D|---------------------------------------------------------------------------|
A|---------5------5----------------------------------------------------------|
E|------55--35-55---3-5------------------------------------------------------|
Composição de Angus Young / Malcolm Young
500 exibições

0 comentários

Mostrar mais comentários

Conseguiu tocar?

0 Tocaram 0 Ainda não

Grave um vídeo tocando Let's Make It e mande pra gente!

00:00 / 00:00
outros vídeos desta música
repetir qualidade Automático
Outros vídeos desta música
00:00 / 00:00
Automático
OK