Cifra Club

Aprenda

Meanstreak

AC/DC

Cifra: Principal (violão e guitarra)
Tom: C
Intro
E-----------------------|
B---4~6--4-4-4-4--4-6---|
G---5~5--5-5-5-5--5-5---|
D-----------------------|
A-----------------------|
E-----------------------|

Riff
E---------------------|------------------------|
B---------------------|------------------------|
G---------------------|------------------------|
D-----6-7-------------|----6-7-----------------|
A---8-----8--6-8-6-8--|--8-----8--6-5---6-5----|
E---------------------|---------------8-----8--|

FILL
|-----------|
|-----------|
|-----------|
|-----------|
|--8~~~-\---|
|-----------|

PRe Chorus
E----------|----------------------------|
B----------|----------------------------|
G----------|--------10------8-----------|
D-----8----|--------10------8-------10--|
A-----8----|--------8-------6-------10--|
E-----6----|------------------------8---|x2

E----------------------------------------------|
B----------------------------------------------|
G-----------------------------8------------6---|
D-----8-------6-------3-------8------------6---|
A-----8-------6-------3-------6------------4---|
E-----6-------4-------1------------------------|

SOLO
                             F
E|---------------------------------------------------------------------------------------------|
B|----6b--6b-6b-6b-6b-6b>>---------------------------------------------------------------------|
G|---------------------------------------------------------------------------------------------|
D|--------------------------------------10^8^6------8b-r^5----5-8-8^6^8^6^8^8^8---------12-12~~|
A|--------------------------<6><6>-8~~~--------8~~~--------8--------------------8----13--------|
E|---------------------------------------------------------------------------------------------|

E|----------------------------------------------10--x-10-10-14^10^14^10^14^10^14^10^14^10^14^10|
B|------------------------------------11---11b--------10---------------------------------------|
G|-----12b10~~\--10-12-12-10-12-10-10----------------------------------------------------------|
D|--/------------------------------------------------------------------------------------------|
A|---------------------------------------------------------------------------------------------|
E|---------------------------------------------------------------------------------------------|

E|-13^10b-\---14b~~~~-20b-r^17---17-----------------------------------------10-13^10----10-15--|
B|-----------------------------20---20-19-18-17--12-15-12---------------13b----------13-----15-|
G|--------------------------------------------------------14---------------------------------15|
D|-----------------------------------------------------------12~~\-x\--------------------------|
A|-----------------------------------------------------------------x\--------------------------|
E|---------------------------------------------------------------------------------------------|

E|--------------------------------------10-13-10----10-13----18b-15-15-17^15-------------------|
B|--15-15~~-14-12------------8b------13----------13-------13----------------17-15\12--12-13-12-|
G|----------------14-12------8b~---------------------------------------------------------------|
D|----------x\---------------------------------------------------------------------------------|
A|----------x\-------------------3\------------------------------------------------------------|
E|---------------------------------------------------------------------------------------------|

E|------------||
B|--12-14-15--||
G|------------||
D|------------||
A|------------||
E|------------||

second solo
E|------------------------13^10----10--------------------------11------------------------------|
B|------------------10-13-------13----10---13-10------6/\------13b-r-------16b~~~--18-18-16-18-18
G|-----------------------------------------------12-------------------x\-----------------------|
D|-------6-8----------------------------------------------------------x\-----------------------|
A|---8-8-----8~~\-----------------------------------------------------x\-----------------------|
E|---------------------------------------------------------------------------------------------|

E|----------------------16------13~~~~\-|--------------------------------
B|-16-18-18-16-18-18--16---18b----------|---------------------/6-6-6-6-8-
G|--------------------------------------|---------------------/7-7-7-7-7-
D|--------------------------------------|---6-7-----------6-7------------
A|--------------------------------------|-8----8-6-8-6-8~~---------------
E|--------------------------------------|--------------------------------
   F (crash)
E--13b~~10----10----------------------------------------------|
B----------13----13-10----------------------------------------|
G----------------------12-10\6-----8--------------------------|
D------------------------------8-6---6-8-6-------------x-\-3--|
A------------------------------------------7~~-9~~~~~--x-\-3--|
E------------------------------------------------------x-\-1--|
Composição de Angus Young / Brian Johnson / Malcolm Young
3.233 exibições
    • ½ Tom
    • A
    • Bb
    • B
    • C
    • Db
    • D
    • Eb
    • E
    • F
    • F#
    • G
    • Ab
  • Adicionar à lista

    0 comentários

    Mostrar mais comentários

    Conseguiu tocar?

    0 Tocaram 0 Ainda não

    Grave um vídeo tocando Meanstreak e mande pra gente!

    00:00 / 00:00
    outros vídeos desta música
    repetir qualidade Automático
    Outros vídeos desta música
    00:00 / 00:00
    Automático
    OK