Cifra Club

Aprenda

Nervous Shakedown

AC/DC

Tab de baixo: Principal
G------------|----------------------|
D------------|----------------------| (6x)
A------------|--222-000-555-222-----|
E--020-0020--|----------------------|

G------------|----------------------|--------------|---------------------|
D---------2--|--240----240---240----|---------2----|--240----240----240--|
A--2---5-----|-----2------2---------|-2---5--------|-----2------2--------|
E------------|----------------------|--------------|---------------------|

G------------------------|------------------------|
D------------------------|------------------------|
A--22---0---55---0---22--|--22---0---55---0---22--|
E------------------------|------------------------|

(refrão)
G------------|---------------------|
D------------|---------------------|  (4x)
A------------|--222-000-555-222----|
E--020-0020--|---------------------|


G--------------|-------------|-------------|-------------|
D---5---4----2-|-------------|---5---4---2-|-------------|
A--------------|---3---2---0-|-------------|---3---2---0-|
E--------------|-------------|-------------|-------------|

G------------|----------------------|
D------------|----------------------| (5x)
A------------|--222-000-555-222-----|
E--020-0020--|----------------------|

G------------|----------------------|--------------|---------------------|
D---------2--|--240----240---240----|---------2----|--240----240----240--|
A--2---5-----|-----2------2---------|-2---5--------|-----2------2--------|
E------------|----------------------|--------------|---------------------|

G------------------------|------------------------|
D------------------------|------------------------|
A--22---0---55---0---22--|--22---0---55---0---22--|
E------------------------|------------------------|

G------------|---------------------|
D------------|---------------------|  (4x)
A------------|--222-000-555-222----|
E--020-0020--|---------------------|

G--------------|-------------|-------------|
D---5---4----2-|-------------|---5---4---2-|
A--------------|---3---2---0-|-------------|
E--------------|-------------|-------------|

G---------------------|------------|--------------------|
D---------------------|------------|--------------------|  (4x)
A--222-000-555-222----|------------|--222-000-555-222---|
E---------------------|--020-0020--|--------------------|

G------------|----------------------|--------------|---------------------|
D---------2--|--240----240---240----|---------2----|--240----240----240--|
A--2---5-----|-----2------2---------|-2---5--------|-----2------2--------|
E------------|----------------------|--------------|---------------------|

G------------------------|------------------------|
D------------------------|------------------------|
A--22---0---55---0---22--|--22---0---55---0---22--|
E------------------------|------------------------|

G------------|---------------------|
D------------|---------------------|  (4x)
A------------|--222-000-555-222----|
E--020-0020--|---------------------|

G------------|---------------------|
D------------|---------------------|  (3x)
A------------|--222-000-555-222----|
E--020-0020--|---------------------|

G------------|---------------------|-----|
D------------|---------------------|-----|  
A------------|--222-000-555-2------|-----|
E--020-0020--|---------------------|--0--|
233 exibições

0 comentários

Mostrar mais comentários

Conseguiu tocar?

0 Tocaram 0 Ainda não

Grave um vídeo tocando Nervous Shakedown e mande pra gente!

00:00 / 00:00
outros vídeos desta música
repetir qualidade Automático
Outros vídeos desta música
00:00 / 00:00
Automático
OK